» » »

Unsigned, Exploding Mice- Tabs (ver.1)

Artists:  A B C D E F G H I J K L M N O P Q R S T U V W X Y Z # 

Exploding Mice- Tabs (ver.1)

Unsigned Tabs
 Rating:
4/5 (4 votes)
Exploding Mice- lessons Tabs too difficult? Try these video lessons and learn fast
                (Intro)
Guitar:

Bass Only

Intro

E|-------------
B|-------------
G|-------------
D|--9-7-5-3----
A|--9-7-5-3----
E|--7-5-3-1----

E|------------------
B|------------------
G|------------------
D|--77777-9---------
A|--77777-9---------
E|--55555-7--------- 4 times

E|------------------
B|------------------
G|------------------
D|--77777-9-7-------
A|--77777-9-7-------
E|--55555-7-5-------

E|-------------
B|-------------
G|-------------
D|--9-7-5-3----
A|--9-7-5-3----
E|--7-5-3-1----


Bass:

Intro

G|-----------------
D|-000000h2--------
A|-----------------
E|----------------- x4

G|-----------------
D|-000000h2p0------
A|-----------------
E|-----------------

G|-----------------
D|-----------------
A|--3-1------------
E|------3-1--------

Repeat Intro
            
Submit corrections

comments powered by Disqus
↑ Back to top | Unsigned Tabs for Exploding Mice-. Lyrics for acoustic guitar and electric guitar. Tablatures and chords are parodies/interpretations of the original songs. You may use it for private study, scholarship, research or language learning purposes only