» » »

Unsigned, Exit - The Other One Bass tabs (ver.1)

Artists:  A B C D E F G H I J K L M N O P Q R S T U V W X Y Z # 

Exit - The Other One Bass tabs (ver.1)

Unsigned Tabs
 Rating:
4/5 (4 votes)
Exit - The Other One lessons Tabs too difficult? Try these video lessons and learn fast
1
                
Bass Tuning: Standard (EADG) 

Intro

G--------------------------------------------------------------------------------|
D*-------------------------------------------------------------------------------|
A*------------7-5-4-55------------7-5-4-55-5--5--5--5-4555-4555-7-7-7-7-77777//--|
E--7--7--7--7----------5--5--5--5------------------------------------------------|

Verse

G------------------------------------------------------------------------|
D*-----------------9-----------------7-----------------7-----------------|
A*---x-x-x-x-x-x-9-----x-x-x-x-x-x-7---5-x-x-x-x-x-x-7-------------------|
E--7-----------------5-----------------------------------5-5-5-5-7-7-7-7-|

Chorus

G------------------------------------|
D*-----------------------------------|
A*-7-777777--------------------------|
E-----------7-777777-9-99-7-5-555555-|
                             
G------------------------------------|
D*-----------------------------------|
A*-7-777777--------------------------|
E-----------7-777777-9-99-7-5-555555-|

G------------------------------------|
D*-----------------------------------|
A*-7-777777---------------7----------|
E-----------7-777777-5-55---7-777777-|

G------------------------------------|
D*-----------------------------------|
A*-7-777777--------------------------|
E-----------7-777777-9-99-7-5--------|
                            let it ring 

Intro

Verse 2 

Chorus 

Breakdown

G----------------------------------|
D*---------------------------------|
A*-7-7-7-------9-9-9-5-5-5-7-7-----|
E--------7-7-7-----------------7-7-|
                   
G----------------------------------|
D*---------------------------------|
A*-7-7-7-------9-9-9-5-5-5-7-7-----|
E--------7-7-7-----------------7-7-|

G----------------------------------|
D*---------------------------------|
A*-7-7-7-------9-9-9-5-5-5-7-7-----|
E--------7-7-7-----------------7-7-|

G----------------------------------|
D*---------------------------------|
A*-7-7-7-------9-9-9-5-5-5-7-7-----|
E--------7-7-7-----------------7-7-|

Last chorus

G------------------------------------|
D*-----------------------------------|
A*-7-777777--------------------------|
E-----------7-777777-9-99-7-5-555555-|
                             
G------------------------------------|
D*-----------------------------------|
A*-7-777777--------------------------|
E-----------7-777777-9-9--7-5--------|
                            let it ring during hi-hat 4 count

G------------------------------------|
D*-----------------------------------|
A*-----------------------------------|
E-5555555555555555-5555555555555555--|

G------------------------------------|
D*-----------------------------------|
A*-7-777777---------------7----------|
E-----------7-777777-5-55---7-777777-|

G----------------------------------|
D*---------------------------------|
A*-7-777777------------------------|
E-----------7-777777-9-99-7-5------|

Chorus (normal) x1

Outro

G-----------------------------------------------|
D*----------------------------------------------|
A*-7-----------7--------7-----------------------|
E-----9--7--5-----9--7-----9--7--5-5------------|
                                   let it ring

G--------------|
D*-0-0---------|
A*-----1-1-4-2-|
E--------------|
            
Submit corrections

comments powered by Disqus
↑ Back to top | Unsigned Bass for Exit - The Other One. Lyrics for acoustic guitar and electric guitar. 1 Tablatures and chords are parodies/interpretations of the original songs. You may use it for private study, scholarship, research or language learning purposes only