» » »

Unsigned, Exile - Lifes Too Short Bass tabs (ver.1)

Artists:  A B C D E F G H I J K L M N O P Q R S T U V W X Y Z # 

Exile - Lifes Too Short Bass tabs (ver.1)

Unsigned Tabs
 Rating:
4/5 (4 votes)
Exile - Lifes Too Short lessons Tabs too difficult? Try these video lessons and learn fast
                                    Priestly
              Horton
(With help from Brown)
Standard tuning
Legend

pm - palm mute     x - muted string
                                                       
 h - hammer on     p - pull off
 // - slide        ~~ - Let note ring
  b - bend

                                                                                           
                                                                              
 This is the bass tab for “Life’s too short” by Exile. You can’t say that this tab is wrong, because I am the bass player.  Enjoy
Intro

G|-------------------------------------------------------------------|  X2
D|-------9--9--9--9-----7--7--7--7----------------------------7------|
A|----7---7--7--7-----5--5--5--5------7--7--7--7------9--9----5---7--|
E|----------------------------------5--5--5--5------7---7---------5--|

Guitar joins in 

(Same thing, just strum the 2 chords)
G|-------------------------------------------------|   X2
D|--99999999--77777777-------------------7---------| 
A|--77777777--55555555--77777777--9999---5--7------| 
E|----------------------55555555--7777------5------| 

Verse
G|--------------------|
D|--------------------|    X4     
A|---7---5----------5-|     (on 3rd and 4th time, let the notes ring)
E|------------5---7---|


Chorus
G|-----------------------------------------------|
D|-----------------------------------------------|  X2
A|--4444444444-7777777777------------------------|
E|------------------------555555555-7777777777---|

Verse
G|--------------------|
D|--------------------|    X4
A|---7---5---------5--|
E|------------5---7---|


Chorus
G|----------------------------------------------------------|
D|----------------------------------------------------------| X4
A|--4444444444-7777777777-----------------------------------|
E|------------------------5555555555-7777777777-------------|

Intro

G|------------------------------------------------------------------| X2
D|-------9--9--9--9-----7--7--7--7----------------------------7-----|
A|----7---7--7--7-----5--5--5--5------7--7--7--7------9--9----5--7--|
E|-----------------------------------5--5--5--5------7---7-------5--|

G|------------------------------------------------|  X4
D|--99999999--77777777-------------------7--------| 
A|--77777777--55555555--77777777--9999---5--7-----| 
E|----------------------55555555--7777------5-----| 

Chorus
G|-----------------------------------------------------------|
D|-----------------------------------------------------------| X2
A|--4444444444-7777777777------------------------------------|
E|-------------------------5555555555-7777777777-------------|

Outro

G|------------------------------|-------|
D|------------------------------|-------|    
A|---7~~5~~----------5~~--------|-------|
E|------------5~~-7~~--------5~~|---5---|
            
Submit corrections

comments powered by Disqus
↑ Back to top | Unsigned Bass for Exile - Lifes Too Short. Lyrics for acoustic guitar and electric guitar. Tablatures and chords are parodies/interpretations of the original songs. You may use it for private study, scholarship, research or language learning purposes only