» » »

Every Day Heroes - Song #1 Tabs (ver.1)

Artists:  A B C D E F G H I J K L M N O P Q R S T U V W X Y Z # 

Every Day Heroes - Song #1 Tabs (ver.1)

Unsigned
Rating:
0/5 (0 votes)

Hard to play? Try these video lessons and learn fast.
                -----------------------------------------------------------
-----------------------------------------------------------
-----------------------------------------------------------
-----10----------10------10------10-----10---9-----9-------
--0-----0-0--8------8-8------7----7-7-----7---7-7----------
-----------------------------------------------------------

-----------------------------------------------------------
-----------------------------------------------------------
-----------------------------------------------------------
-----9------9-------9------10---------10------10-----------
-8-8----8-7---7-7-------0----0-0--8-----8-8-----7-7-7-7----
-----------------------------------------------------------
            
Hard to play? Try these video lessons and learn fast. | Correct




comments powered by Disqus
↑ Back to top | Tablatures and chords are parodies/interpretations of the original songs. You may use it for private study, scholarship, research or language learning purposes only