» » »

Unsigned, Evermind - Blind Man's Melody Tabs (ver.1)

Artists:  A B C D E F G H I J K L M N O P Q R S T U V W X Y Z # 

Evermind - Blind Man's Melody Tabs (ver.1)

Unsigned Tabs
 Rating:
4/5 (4 votes)
Evermind - Blind Man's Melody lessons Tabs too difficult? Try these video lessons and learn fast
                
E|-----------------------------------------------------------------
B|------0----------------------------------------------------------
D|----2---2-----------0---------------0---------------0------------
G|--2-------2-------0---0---0---0---0---0---0---0---0---0---0---0--
A|0-----------0---2---------------3---------------2----------------
E|-----------------------------------------------------------------

E|-----------------------------------------------------------------
B|----0------------------------------------------------------------
D|------2-------------0---------------0---------------0------------
G|--2-------2-------0---0---0---0---0---0---0---0---0---0---0---0--
A|0-----------0---2---------------3---------------3----------------
E|-----------------------------------------------------------------

E|-----------------------------------------------------------------
B|----0------------------------------------------------------------
D|------2-------------0---------------0---------------0------------
G|--2-------2-------0---0---0---0---0---0---0---0---0---0----------
A|0-----------0---2---------------3---------------3----------------
E|-----------------------------------------------------------------

E|-----------------------------------------------------------------
B|-----------------------------------------------------------------
D|2---2-2-----2---0---0-0-----0---0---0-0-----0---0---0-0-----0----
G|2---2-2-----2---2---2-2-----2---0---0-0-----0---0---0-0-----0----
A|0---0-0-----0---3---3-3-----3---2---2-2-----2---2---2-2-----2----
E|-----------------------------------------------------------------

E|-----------------------------------------------------------------
B|------------------------------------------------3---3-3-----3----
D|2---2-2-----2---0---0-0-----0---0---0-0-----0---2---2-2-----2----
G|2---2-2-----2---2---2-2-----2---0---0-0-----0---0---0-0-----0----
A|0---0-0-----0---3---3-3-----3---2---2-2-----2---0---0-0-----0----
E|-----------------------------------------------------------------

E|-----------------------------------------------------------------
B|0---0-0-----0---0---0-0-----0---0---0-0-----0---0---0-0-----0----
D|2---2-2-----2---0---0-0-----0---0---0-0-----0---0---0-0-----0----
G|2---2-2-----2---2---2-2-----2---0---0-0-----0---0---0-0-----0----
A|0---0-0-----0---3---3-3-----3---2---2-2-----2---2---2-2-----2----
E|-----------------------------------------------------------------

E|-----------------------------------------------------------------
B|0---0-0-----0---0---0-0-----0---0---0-0-----0---3----------------
D|2---2-2-----2---0---0-0-----0---0---0-0-----0---2----------------
G|2---2-2-----2---2---2-2-----2---0---0-0-----0---0----------------
A|0---0-0-----0---3---3-3-----3---2---2-2-----2---0----------------
E|-----------------------------------------------------------------

E|-----------------------------------------------------------------
B|------0----------------------------------------------------------
D|----2---2-----------0---------------0---------------0------------
G|--2-------2-------0---0---0---0---0---0---0---0---0---0---0---0--
A|0-----------0---2---------------3---------------2----------------
E|-----------------------------------------------------------------

E|-----------------------------------------------------------------
B|----0-------------------------------------------0----------------
D|------2-------------0---------------0-----------0----------------
G|--2-------2-------0---0---0---0---0---0---0-----0----------------
A|0-----------0---2---------------3---------------2----------------
E|-----------------------------------------------------------------

To get an mp3 version of this song, go to mp3.com/evermind.
Enjoy!
            
Submit corrections

comments powered by Disqus
↑ Back to top | Unsigned Tabs for Evermind - Blind Man's Melody. Lyrics for acoustic guitar and electric guitar. Tablatures and chords are parodies/interpretations of the original songs. You may use it for private study, scholarship, research or language learning purposes only