» » »

Unsigned, Evapora - Chase Bass tabs (ver.1)

Artists:  A B C D E F G H I J K L M N O P Q R S T U V W X Y Z # 

Evapora - Chase Bass tabs (ver.1)

Unsigned Tabs
 Rating:
4/5 (4 votes)
Evapora - Chase lessons Tabs too difficult? Try these video lessons and learn fast
                [Intro]
-0--0-0--0--0--0-0--0--0-0--0--0--0-0-
--------------------------------------
--------------------------------------
-------------------------------------- x2

[Verse 1]
-0-0-4-5-0-0-5-4-0-0-5-4-0-0-4-3-
---------------------------------
---------------------------------
--------------------------------- x4

[Chorus]
-7-7-7-3-3-3-5-5-5-3-3-3-2-2-2-2-
---------------------------------
---------------------------------
--------------------------------- x4

-7-7-7-7-3-3-3-3-5-5-5-5-3-3-2-2-
---------------------------------
---------------------------------
--------------------------------- x4

[Verse 2]
-0-0-4-5-0-0-5-4-0-0-5-4-0-0-4-3-
---------------------------------
---------------------------------
--------------------------------- x4

-0-3-1-0-3-1-0-0-0-3-1-0-3-1-0-0-0-
-----------------------------------
-----------------------------------
----------------------------------- x1

-0-3-1-0-3-1-0-0-0-3-1-0-0-0-1-3-
---------------------------------
---------------------------------
--------------------------------- x1

[Chorus] x2

[Outro]
-3-----4-5---
---3-4-----5-
-------------
------------- x4 (On 4th Hold Final Note)
            
Submit corrections

comments powered by Disqus
↑ Back to top | Unsigned Bass for Evapora - Chase. Lyrics for acoustic guitar and electric guitar. Tablatures and chords are parodies/interpretations of the original songs. You may use it for private study, scholarship, research or language learning purposes only