» » »

Unsigned, El Diablo - Untitled Bass tabs (ver.1)

Artists:  A B C D E F G H I J K L M N O P Q R S T U V W X Y Z # 

El Diablo - Untitled Bass tabs (ver.1)

Unsigned Tabs
 Rating:
4/5 (4 votes)
El Diablo - Untitled lessons Tabs too difficult? Try these video lessons and learn fast
                Riff 1 (Verse)

G---------------------------------|
D---------------------------------|
A-2---2-2-------------------------|
E---------55--5-5-2---2-2-33--3-3-|

Riff 2

G-----------------------------------------------------------------|
D-----------------------------------------------------------------|
A-2---2-2-55--5-5-----------------2---2-2-------------------------|
E-----------------3---3-3-22--2-2---------33--3-3-2-2-2-2-2-2-2-2-|

Riff 3 (Chorus)

G-----------------------------------------------------------------|
D-----------------------------------------------------------------|
A-2-2-2-2-2-2-2-2-----------------5-5-5-5-5-5-5-5-----------------|
E-----------------3-3-3-3-3-3-3-3-----------------5-5-5-5-5-5-5-5-|

Riff 4

G---------------------------------|
D---------------------------------|
A---------------------------------|
E-0---0-0-00--0-0-3-3-3-3-3-3-3-3-|

Riff 5

G--------------------------------|--|---------------------------------|
D--------------------------------|--|---------------------------------|
A-2---2-2-55--5-5----------------|x3|-2---2-2-------------------------|
E-----------------3---3-3-22--2-2|--|---------33--3-3-2-2-2-2-2-2-2-2-|

In Order:

Riff 1 x2
Riff 2 x1
Riff 1 x2
Riff 2 x1
Riff 1 x2
Riff 2 x1
Riff 3 x2
Riff 1 x4
Riff 2 x1
Riff 4 x2
Riff 3 x4
Riff 5 x1
Riff 4 x4
Riff 3 x4
            
Submit corrections

comments powered by Disqus
↑ Back to top | Unsigned Bass for El Diablo - Untitled. Lyrics for acoustic guitar and electric guitar. Tablatures and chords are parodies/interpretations of the original songs. You may use it for private study, scholarship, research or language learning purposes only