» » »

Easy Way Out - Revival Bass tabs (ver.1)

Artists:  A B C D E F G H I J K L M N O P Q R S T U V W X Y Z # 

Easy Way Out - Revival Bass tabs (ver.1)

Unsigned
Rating:
0/5 (0 votes)

Hard to play? Try these video lessons and learn fast.
                h=hammer 
     p=pulloff  


       Intro
G | -3-3----3h4p-|-3-3----3h4p-|-3-3---3h4p-|-3-3----3h4p-|
D | ------4------|------4------|------4-----|------4------| 
A | -------------|-------------|------------|-------------|
E | -------------|-------------|------------|-------------|
    
        Verse
G | -------------------|
D | -------------------|
A | -333--3--555-------|
E | ------3--------3---|


       Chorus
G | -------------------|-------------------|-------------------|-------------------|
D | -------------------|-------------------|-------------------|-------------------|
A | -------------------|-------------------|-------------------|-------------------|
E-| -9999-999-7777-777-|-9999-999-7777-777-|-9999-999-7777-777-|-9999-999-7777-777-|


        Solo
G | ----------------------- |----------------------|-----------------------|
D | --7---------------------|----7-----------------|--7--------------------|
A | -9-0----------------- --|-99--9----------------|-9-9-------------------|
E | ------9-7-5-0-0-9-0-7-5-|--------9-9-9-77-579- |------9-9-9-55797------|

G | --------------------|
D | --7-----------------|
A | -9-9----------------|
E | -------9-9-97795----|
     
   
      Intro x2 
     Verse x5
     Chorus
      Solo
     Intro
     Verse x5
     Chorus
     Intro
     Verse x5
     Chorus
            
Hard to play? Try these video lessons and learn fast. | Correct




comments powered by Disqus
↑ Back to top | Tablatures and chords are parodies/interpretations of the original songs. You may use it for private study, scholarship, research or language learning purposes only