» » »

Unsigned, Easily Amused - Why Tabs (ver.1)

Artists:  A B C D E F G H I J K L M N O P Q R S T U V W X Y Z # 

Easily Amused - Why Tabs (ver.1)

Unsigned Tabs
 Rating:
4/5 (4 votes)
Easily Amused - Why lessons Tabs too difficult? Try these video lessons and learn fast
1
                E  :-------------------------------|-------------------------------|
B  :-------------------------------|-------------------------------|
G  :-------------------------------|-------------------------------|
D  :-------------------------------|-------------------------------|
A  :9-9-9-9-9-9-9-9-9-9-7-7-7-7-7-7|5-5-5-5-5-5-5-7-7-7-7-7-7-7-7-7|
E  :7-7-7-7-7-7-7-7-7-7-5-5-5-5-5-5|3-3-3-3-3-3-3-5-5-5-5-5-5-5-5-5|

E  :------------------|-------------------------------|
B  :------------------|-------------------------------|
G  :3-3--6-5---7-3----|-------------------------------|
D  :---------6-----3--|-------------------------------|
A  :------------------|5-5-5-5-5-5-5-5-8-8-8-8-8-8-8-8|
E  :------------------|3-3-3-3-3-3-3-3-6-6-6-6-6-6-6-6|

E  :-----------------------|-------------------------------|
B  :-----------------------|-------------------------------|
G  :3-4--4-5-6-----8---4---|-------------------------------|
D  :-----------6-7---6-----|-------------------------------|
A  :-----------------------|4-4-4-4-4-4-4-4-7-7-7-7-7-7-7-7|
E  :-----------------------|2-2-2-2-2-2-2-2-5-5-5-5-5-5-5-5|
            
Submit corrections

comments powered by Disqus
↑ Back to top | Unsigned Tabs for Easily Amused - Why. Lyrics for acoustic guitar and electric guitar. 1 Tablatures and chords are parodies/interpretations of the original songs. You may use it for private study, scholarship, research or language learning purposes only