» » »

Unsigned, Dweeb - All The Kids Bass tabs (ver.1)

Artists:  A B C D E F G H I J K L M N O P Q R S T U V W X Y Z # 

Dweeb - All The Kids Bass tabs (ver.1)

Unsigned Tabs
 Rating:
4/5 (4 votes)
Dweeb - All The Kids lessons Tabs too difficult? Try these video lessons and learn fast
                INTRO
g|-------------------4---------------2---------------------------------|
d|----4h5p4-5-7-5-4~~-4h5p4-5-7-5-4~~-4h5p4-5-7-5-4~~-2-4h5p4-5-7-9-7~~|
a|10/5-----------------------------------------------------------------|
e|---------------------------------------------------------------------|

VERSE
g|---------------4-4-4-4-4-2-2-2-2-2-----------------------------------------|
d|-----------------------------------2-2-2-2-2-2-2-2-2-2-2-2-5-5-5-5-5-7-9-7~|
a|5-5-5-5-5-5-5-5------------------------------------------------------------|
e|---------------------------------------------------------------------------|

PRE CHORUS

g|-----------6h7p6h7-|
d|--4h5p4h5-7--------|
a|-5-----------------|
e|-------------------|

CHORUS

g|----------------------------------------|
d|---3-3-5-5-3-3-7-7-7-----3-3-5-5-3-3-7~~|
a|5-5------------------5-5----------------|
e|----------------------------------------|

layout:
intro........x1
verse........x6
pre chorus...x4
chorus.......x5
verse........x6
pre chorus...x4
chorus.......x5
intro........x1
            
Submit corrections

comments powered by Disqus
↑ Back to top | Unsigned Bass for Dweeb - All The Kids. Lyrics for acoustic guitar and electric guitar. Tablatures and chords are parodies/interpretations of the original songs. You may use it for private study, scholarship, research or language learning purposes only