» » »

Duck Tape- Pickaninny Tabs (ver.1)

Artists:  A B C D E F G H I J K L M N O P Q R S T U V W X Y Z # 

Duck Tape- Pickaninny Tabs (ver.1)

Unsigned
Rating:
0/5 (0 votes)

Hard to play? Try these video lessons and learn fast.
                This is an awesome song by an awesome band.  I listened to the CD day and night to figure this one out.  I think it's pretty close. These guys had better get signed soon. Enjoy!

Intro/Outro     4x                                        | |
e|------------------------------------------------------------|
B|------------------------------------------------------------|
G|------------------------------------------------------------|
D|--0-0--0-15~--15-0-0--0-15~--15-0-0--0-15~-0-0-2-0-3-0-4-5--|
A|--0-0--0-15~--15-0-0--0-15~--15-0-0--0-15~-0-0-2-0-3-0-4-5--|
D|--0-0--0-15~--15-0-0--0-15~--15-0-0--0-15~-0-0-2-0-3-0-4-5--|
                                                          |__|
                                                           hold on the last time 
Verse 2x              3x                  4th time
e|-----------------------------|--------------------------|
B|--------12--13---------------|--------------------------|
G|--11-11---11---12-12--12h13--|--------------------------|
D|-----------------------------|--5-5-x-5-5-x-5-5-x-5-5-x-|
A|-----------------------------|--5-5-x-5-5-x-5-5-x-5-5-x-|
D|-----------------------------|--5-5-x-5-5-x-5-5-x-5-5-x-|


Prechorus   4x
e|----------------------|
B|----------------------|
G|----------------------|
D|--3--3-3-1--1--1-1-1--|
A|--3--3-3-1--1--1-1-1--|
D|--3--3-3-1--1--1-1-1--|

Chorus   2x
e|-------------------------------------------------------------------------------|
B|-------------------------------------------------------------------------------|
G|-------------------------------------------------------------------------------|
D|--0-0--15-7--7-7-7--7-5--5-5-3--3-3-3---0-0--15-7--7-7-7--2-2-3-3-2-2-5-5-5-5--|
A|--0-0--15-7--7-7-7--7-5--5-5-3--3-3-3---0-0--15-7--7-7-7--2-2-3-3-2-2-5-5-5-5--|
D|--0-0--15-7--7-7-7--7-5--5-5-3--3-3-3---0-0--15-7--7-7-7--2-2-3-3-2-2-5-5-5-5--|


Order
Intro      4x
Verse      2x
Prechorus  4x
Chorus     2x
Verse      2x
Prechorus  4x
Chorus     2x
Break for drum solo
Outro      4x
            
Hard to play? Try these video lessons and learn fast. | Correct




comments powered by Disqus
↑ Back to top | Tablatures and chords are parodies/interpretations of the original songs. You may use it for private study, scholarship, research or language learning purposes only