» » »

Drywater-Cratephone Tabs

Artists:  A B C D E F G H I J K L M N O P Q R S T U V W X Y Z # 

Drywater-Cratephone Tabs

(ver. 1)
Unsigned Tabs
 Rating:
4/5 (4 votes)
    Drywater-Cratephone lessons Tabs too difficult? Try these video lessons and learn fast
                intro. palm mute. repeat 4x
--------------------------
--------------------------
-----------------9-7-----
-----------------7-5-----
-5-5-7-7-9-9----------
-3-3-5-5-7-7----------

pre chorus. repeat 4x
-----------------------
-----------------------
-----------------9-7
-----------------7-5
-5-5-7-7-9-9-------
-3-3-5-5-7-7-------

chorus. repeat 4x
--------------------------------
--------------------------------
-------------------------99-77
-------------------------77-55
-5555-7777-9999---------
-3333-5555-7777---------

repeat this 3 times and then do the solo. i cant tab the solo because it changes everytime i play. it depends on what mood i'm in
            
Submit corrections

↑ Back to top | Unsigned Tabs for Drywater-Cratephone. Lyrics for acoustic guitar and electric guitar. Tablatures and chords are parodies/interpretations of the original songs. You may use it for private study, scholarship, research or language learning purposes only