>
 >
Droolpool

Droolpool Guitar Tabs

Unsigned - Droolpool chords, tabs, tablatures, lyrics

Guitar lessons | Add/correct | Request | Top 50 tabs Artists:  A B C D E F G H I J K L M N O P Q R S T U V W X Y Z 0-9

Droolpool Guitar Tabs – Unsigned

CD, Sheet music, Poster

Do you like Droolpool? Share with your friends now
Tabs
DroolPool
Chords
|---| |---| |---| |---| |---| |---|  ^ = go to note noted
|---| |---| |---| |---| |---| |---|  * = palm mute 
|---| |---| |---| |---| |---| |---|
|-5-| |---| |---| |-10| |-12| |---|
|-3-| |-5-| |-3-| |-8-| |-12| |-7-|
|---| |-3-| |-1-| |---| |-10| |-5-|
 C5   G5/1  F5/1  F5/2  G5/2   A5




    ^  Measure 1
E-|----------------------------------------------------------------|-]
B-|----------------------------------------------------------------|-]
G-|---*-*-*-*-*-*-*------------------------------------------------|-]
D-|-5-5-5-5-5-5-5-5-2-2-2-3-3-3-2-2---*-*-*-*-*-*-*----------------|-]
A-|-3-3-3-3-3-3-3-3-----------------5-5-5-5-5-5-5-5-2-2-2-3-3-3-2-2|-]
E-|---------------------------------3-3-3-3-3-3-3-3----------------|-]
       Measure 2
E-|----------------------------------------------------------------|-]
B-|----------------------------------------------------------------|-]
G-|---*-*-*-*-*-*-*------------------------------------------------|-]
D-|-2-2-2-2-2-2-2-2-0-0-0-2-2-2-0-0---*-*-*-*-*-*-*-2-2-2-0-0-0----|-]
A-|-0-0-0-0-0-0-0-0-----------------3-3-3-3-3-3-3-3-------------2--|-]
E-|---------------------------------1-1-1-1-1-1-1-1----------------|-]
       Measure 3                      measure 6
E-|----------------------------------|-----------------------------|-]
B-|----------------------------------|-----------------------------|-]
G-|-------------2x-------------------|-----------------------------|-]
D-|----------------------------------|-----------------------------|-]
A-|-5-5-5-7-7-7-5-5-8-8-8-7-7-7-5-5-5|2^---------------------------|-]
E-|----------------------------------|-----------------------------|-]
    C5/1       Measure 4              G5/1 measure 7
E-|--------------------------------|-------------------------------|-]
B-|--------------------------------|-------------------------------|-]
G-|-*-*-*-*-*-*-*-*-*-*-*-*-*-*-*-*|-------------------------------|-]
D-|-5-5-5-5-5-5-5-5-5-5-5-5-5-5-5-5|*-*-*-*-*-*-*-*-*-*-*-*-*-*-*-*|-]
A-|-3-3-3-3-3-3-3-3-3-3-3-3-3-3-3-3|5-5-5-5-5-5-5-5-5-5-5-5-5-5-5-5|-]
E-|--------------------------------|3-3-3-3-3-3-3-3-3-3-3-3-3-3-3-3|-]
   A5/1        Measure 5            F5/1 measure 8
E-|--------------------------------|-------------------------------|-]
B-|--------------------------------|-------------------------------|-]
G-|--------------------------------|-------------------------------|-]
D-|-*-*-*-*-*-*-*-*-*-*-*-*-*-*-*-*|*-*-*-*-*-*-*-*-*-*-*-*-*-*-*-*|-]
A-|-7-7-7-7-7-7-7-7-7-7-7-7-7-7-7-7|3-3-3-3-3-3-3-3-3-3-3-3-3-3-3-3|-]
E-|-5-5-5-5-5-5-5-5-5-5-5-5-5-5-5-5|1-1-1-1-1-1-1-1-1-1-1-1-1-1-1-1|-]

At the end of measure 5 do this instead of measure 8

E-|----------------------------------------------------------------|-]
B-|----------------------------------------------------------------|-]
G-|-10101010109-9-12-12-12^----------------------------------------|-]
D-|-10101010109-9-12—12-12-----------------------------------------|-]
A-|-8-8-8-8-8-7-7-10-10-10-----------------------------------------|-]
E-|----------------------------------------------------------------|-]



 




E-|----------------3--1---------------3--1---------------3--1------|-]
B-|----------------------------------------------------------------|-]
G-|--*-*-*-*-*-*-*-------------------------*-*-*-*-*-*-*-----------|-]
D-|--5-5-5-5-5-5-5------*-*-*-*-*-*-*------2-2-2-2-2-2-2-----------|-]
A-|--3-3-3-3-3-3-3------5-5-5-5-5-5-5------0-0-0-0-0-0-0-----------|-]
E-|---------------------3-3-3-3-3-3-3------------------------------|-]


E-|----------------------------------------------------------------|-]
B-|----------------------------------------------------------------|-]
G-|----------------------------------------------------------------|-]
D-|----------------------------------------------------------------|-]
A-|-3-3-3-3-3-3-3-3-3-3-3-3-3-3-3-3--------------------------------|-]
E-|-1-1-1-1-1-1-1-1-1-1-1-1-1-1-1-1--------------------------------|-]



End on c5





Comments


Popular Unsigned tabs & chords
Dabchick - The Elcamino Hapachino Bass Tabs
Insecure Gnomes - Clearer Bass Tabs
Off Limit - Parallel Tunes Bass Tabs
Sk8punkers - Jam Bass Tabs
Stereo Ad 1 Bass Tabs
4track-Duct Tape Tabs
Dayz Never Done-Shibby Tabs
Doubleopunk - Lost Authority Tabs
Fringe-No Name Yet Tabs
Idiot Box - Midnightmare Tabs


Song lyrics



↑ Back to top | Tablatures and chords are parodies/interpretations of the original songs. You may use it for private study, scholarship, research or language learning purposes only
© 2014 AZChords.com Contact us | Privacy policy | DMCA | Add/correct tabs | Request tabs | Top 50 tabs