» » »

Unsigned, Door Knob Tabs (ver.1)

Artists:  A B C D E F G H I J K L M N O P Q R S T U V W X Y Z # 

Door Knob Tabs (ver.1)

Unsigned Tabs
 Rating:
4/5 (4 votes)
Door Knob lessons Tabs too difficult? Try these video lessons and learn fast
1
                Here’s a song I wrote. I also 
wrote the post called Blue Mohican 
but I reckon this is better

--------------------I 
--------------------I 
------7---------7---I 
----6---------6-----I 
--4---------4-------I 
--------------------I
play this slowly and lightly 
i recommend fingers, not a pick

--------I-----------------I
--------I-----------------I
----7---I-----------------I
--7-----I-----------------I
------7-I—9h11---11—11h9--I
--------I------9----------I

-------------------I 
-------------------I 
------10-------10--I
----9--------9-----I
--7--------7-------I
-------------------I

-------------------I
-------------------I
----7---------4----I
--7---------4------I
------7---------4--I
-------------------I

-------------------I
-------------------I
-------------------I
-------------------I
--4h5---5—5p4------I
------4------------I

Well, that’s it rate it and 
tell me wot u think.If u can think of 
any improvements pls Post them on the 
corrections page.
            
Submit corrections

comments powered by Disqus
↑ Back to top | Unsigned Tabs for Door Knob. Lyrics for acoustic guitar and electric guitar. 1 Tablatures and chords are parodies/interpretations of the original songs. You may use it for private study, scholarship, research or language learning purposes only