» » »

Unsigned, Don Go Tabs (ver.1)

Artists:  A B C D E F G H I J K L M N O P Q R S T U V W X Y Z # 

Don Go Tabs (ver.1)

Unsigned Tabs
 Rating:
4/5 (4 votes)
Don	 Go lessons Tabs too difficult? Try these video lessons and learn fast
                “Dont go”
Tab sent in by Joe Martinez
Tuning (D, G, C, F, A, D) 
P.M= Palm mute  
/ = slide

Intro/ Verse guitar 1 clean
D---------------------------------------------------------------------------------
A-------------1-----------------1---------------1--------------1------------------
F----------0-----0-----------0----0---------0-----0--------0-----0----------------
C------2-----------2------2---------2----2---------2----2----------2--------------
G---3------------------3---------------2---------------2---------------2----------
D---------------------------------------------------------------------------------

D--------------------------------------------------------------------------------
A----------1--------------1--------------1---------------1-----------------------
F--------0---0----------0---0---------0---0----------0----0----------------------
C-----2--------2-----2--------2----2--------2-----2---------2--------------------
G--3---------------2--------------0--------------2-------------------------------
D--------------------------------------------------------------------------------

Guitar 2 verse
clean w/ phaser
D--------7-----------7-------------------------7-------7------------------------
A-----8----8------8---8-----8----8----8------7---7---7---7-----7----7----7------
F---7-----------7----------7----7----7-----7--------7--------7----7----7--------
C-------------------------------------------------------------------------------
G-------------------------------------------------------------------------------
D-------------------------------------------------------------------------------

Chorus:
Guitar 1 lite dis
D--0---------0----------------------------------------------------------
A--0---------0----------------------------------------------------------
F--0---------0----------------------------------------------------------
C--2—X8------5--X8------------------------------------------------------
G--2---------3----------------------------------------------------------
D--0---------3----------------------------------------------------------

Chorus Guitar 2
lite dist
D---9----------------------------------------------
A-----6—7P0-------------------------------------
F---------------------------------------------------
C---------------------------------------------------
G--------------------------------------------------
D---------------------------------------------------


Bridge:
Guitar 1
clean w/phaser
D-0----0------------------------0-----------0------0-------------------0----------
A-0------0--------0----0---------0----------0--------0---------0---0-----0--------
F-0---------0-------0--------------0--------0----------0---------0----------0-----
C-2-----------------------------------------2-------------------------------------
G-2-----------------------------------------2-------------------------------------
D-0-----------------------------------------0-------------------------------------

D--0----0--------------------0----------0------0-------------------0--------------
A--0------0--------0---0------0---------0--------0--------0---0-----0-------------
F--0---------0-------0----------0-------0----------0--------0---------0-----------
C--5------------------------------------5-----------------------------------------
G--3------------------------------------5-----------------------------------------
D--3------------------------------------3-----------------------------------------

Bridge Guitar 2
(Guitar 2 comes in on the 3rd time around)
lite dist
D----------------------------------------------------------
A----------------------------------------------------------
F----------------------------------------------------------
C---5-5-5-5-5-5-5-5/----9-9-9-9-9-9-9-9--------------------
G---3-3-3-3-3-3-3-3/----7-7-7-7-7-7-7-7--------------------
D---3-3-3-3-3-3-3-3/----7-7-7-7-7-7-7-7--------------------
 P.M………………..      ………………...............
On last time on the 7-7-9 gradually release the P.M

Outro med dist
Guitar 1
D--0---------0------------------------------------------------------------------- x2
A--0---------0-------------------------------------------------------------------
F--0---------0-------------------------------------------------------------------
C--2—X8------5--X8---------------------------------------------------------------
G--2---------3-------------------------------------------------------------------
D--0---------3-------------------------------------------------------------------

D--0----------0-------------------------------------x2
A--0----------0-------------------------------------
F--0---x8-----0---x8-------------------------------
C--5----------9--------------------------------------
G--3----------7--------------------------------------
D--3----------7--------------------------------------


Guitar 2 med dist

D---9---------------------------------------------- 
A-----6—7P0-------------------------------------
F---------------------------------------------------
C---------------------------------------------------
G--------------------------------------------------
D---------------------------------------------------

Change to this when guitar 1 changes
D-------------------------------------------
A-------------------------------------------
F----5-5-5-5-5-5-5-5-/---9-9-9-9-9-9-9-9----
C----x-x-x-x-x-x-x-x-/---x-x-x-x-x-x-x-x----
G----3-3-3-3-3-3-3-3-/---7-7-7-7-7-7-7-7----
D-------------------------------------------
            
Submit corrections

comments powered by Disqus
↑ Back to top | Unsigned Tabs for Don Go. Lyrics for acoustic guitar and electric guitar. Tablatures and chords are parodies/interpretations of the original songs. You may use it for private study, scholarship, research or language learning purposes only