» » »

Unsigned, Donations - Fairyland Bass tabs (ver.1)

Artists:  A B C D E F G H I J K L M N O P Q R S T U V W X Y Z # 

Donations - Fairyland Bass tabs (ver.1)

Unsigned Tabs
 Rating:
4/5 (4 votes)
Donations - Fairyland lessons Tabs too difficult? Try these video lessons and learn fast
                Tunning	EADG

Intro/Verse: played constant as sixteenth notes
G||-11-----11---11---12-11-9-9-----9---9---11-9--|
D||---0-0-0--0-0--0-0--0--0-0-0-0-0-0-0-0-0--0-0-|
A||----------------------------------------------|
E||----------------------------------------------|

G||-7-----11---9---12-7-----9---7---9---7---7----|
D||--0-0-0--0-0-0-0--0-0-0-0-0-0-0-0-0-0-0-0-0-0-|
A||----------------------------------------------|
E||----------------------------------------------|

Chorus: Guitar only

Bridge:
G||-11-11-9--9-9-9--7-7-9--9-9-9-----------------|
D||-9--9--7--7-7-7--5-5-7--7-7-7-----------------|
A||----------------------------------------------|
E||----------------------------------------------|
            
Submit corrections

comments powered by Disqus
↑ Back to top | Unsigned Bass for Donations - Fairyland. Lyrics for acoustic guitar and electric guitar. Tablatures and chords are parodies/interpretations of the original songs. You may use it for private study, scholarship, research or language learning purposes only