» » »

District4 - Over Bass tabs (ver.1)

Artists:  A B C D E F G H I J K L M N O P Q R S T U V W X Y Z # 

District4 - Over Bass tabs (ver.1)

Unsigned
Rating:
0/5 (0 votes)

Hard to play? Try these video lessons and learn fast.
                |-----------|
|-----------|
|---5--7--5-| X4
|-3--5--7---|

|---------------------------|
|---------------------------|
|---------------------------| X2
|-22222222---------55555555-|

Verse 1
|----------------------------------|
|----------------------------------|
|---------5-5-5-5----------7-7-7-7-| X2
|-22222222--------55555555---------|

CHORUS
|-----------------------------------------------------|
|-----------------------------------------------------|
|-----------5-5-5-5---------7-77-7-77---------5-5-5-5-| X2
|-2-22-2-22---------5-5-5-5-----------7-7-7-7---------|


|-----------|
|-----------|
|---5--7--5-| X4
|-3--5--7---|

|---------------------------|
|---------------------------|
|---------------------------| X2
|-22222222---------55555555-|

Verse 2
|----------------------------------|
|----------------------------------|
|---------5-5-5-5----------7-7-7-7-| X2
|-22222222--------55555555---------|

CHORUS
|-----------------------------------------------------|
|-----------------------------------------------------|
|-----------5-5-5-5---------7-77-7-77---------5-5-5-5-| X2
|-2-22-2-22---------5-5-5-5-----------7-7-7-7---------|


|-----------|
|-----------|
|---5--7--5-| X4
|-3--5--7---|

|---------------------------|
|---------------------------|
|---------------------------| X2
|-22222222---------55555555-|

Verse 3
|----------------------------------|
|----------------------------------|
|---------5-5-5-5----------7-7-7-7-| X2
|-22222222--------55555555---------|

CHORUS
|-----------------------------------------------------|
|-----------------------------------------------------|
|-----------5-5-5-5---------7-77-7-77---------5-5-5-5-| X2
|-2-22-2-22---------5-5-5-5-----------7-7-7-7---------|

Interlude
|-----------------------------------------------------------------------|
|-----------------------------------------------------------------------|
|----4--------4--------4--------4--------8--------8--------8--------8---| X2
|-5----4---5----4---5----4---5----4---9----8---9----8---9----8---9----8-|

CHORUS
|-----------------------------------------------------|
|-----------------------------------------------------|
|-----------5-5-5-5---------7-77-7-77---------5-5-5-5-| X 4-6
|-2-22-2-22---------5-5-5-5-----------7-7-7-7---------|


you can check us out soon on mP3.com.  Our site will be up in about a week...so the end of january 2003.
            
Hard to play? Try these video lessons and learn fast. | Correct




comments powered by Disqus
↑ Back to top | Tablatures and chords are parodies/interpretations of the original songs. You may use it for private study, scholarship, research or language learning purposes only