» » »

Distorted Visions - Faith In A Boy Tabs (ver.1)

Artists:  A B C D E F G H I J K L M N O P Q R S T U V W X Y Z # 

Distorted Visions - Faith In A Boy Tabs (ver.1)

Unsigned
Rating:
0/5 (0 votes)

Hard to play? Try these video lessons and learn fast.
                Tuning: DADGBE

This is a song written by me for my band.

Riff 1 - Distortion
E[----------------------------------]
B[----------------------------------]
G[----------------------------------]
D[--8-7-0-9-999--8-7-0-10-10-10-10--]x4
A[--8-7-0-9-999--8-7-0-10-10-10-10--]
D[--8-7-0-9-999--8-7-0-10-10-10-10--]

Riff 2 - Clean During the lyrics
E[--------------------------------------------------------------]
B[--------------------------------------------------------------]
G[--------------------------------------------------------------]
D[--4-44-4-4-4444--3-33-3-3-3333--5-55-5-5-5555--0-00-0-0-9999--]x2
A[--4-44-4-4-4444--3-33-3-3-3333--5-55-5-5-5555--0-00-0-0-9999--]
D[--4-44-4-4-4444--3-33-3-3-3333--5-55-5-5-5555--0-00-0-0-9999--]

Riff 3 - Distortion
E[-----------------------------------------]
B[-----------------------------------------]
G[--8-8-/10--10-10-10--5-5-/6--6-6-6-------]
D[--x-x-/10--10-10-10--x-x-/x--x-x-x-------]
A[--6-6-/8---8--8--8---3-3-/4--4-4-4-------]
D[------------------------------------(0)--]

Solo - Use Delay
E[------------------------------------------------------------]
B[------------------------------------------------------------]
G[---8-6---8-6---8-6-----------8-6---8-6---8-6----------------]
D[-------7-----7-----7-6-6-4-3-----7-----7-----7-8b9r8b9-6-7--]x2
A[------------------------------------------------------------]
D[------------------------------------------------------------]

You can play this song in any order that you like because I myself
have not set a way to play it yet. Please leave comments in the
corrections. Thanks.
            
Hard to play? Try these video lessons and learn fast. | Correct




comments powered by Disqus
↑ Back to top | Tablatures and chords are parodies/interpretations of the original songs. You may use it for private study, scholarship, research or language learning purposes only