» » »

Unsigned, Dismembered - One Tabs (ver.1)

Artists:  A B C D E F G H I J K L M N O P Q R S T U V W X Y Z # 

Dismembered - One Tabs (ver.1)

Unsigned Tabs
Rating:
0/5 (0 votes)
Hard to play? Try these video lessons and learn fast.
                Intro and Verse riff

E--------------------------------------------------------------------------
B--------------------------------------------------------------------------
G---9----------------------------------------------------------------------
D---9---6---7--9-----------------------------------------------------------
A---7---6---7--9-----------------------------------------------------------
E-------4—--5--7-----------------------------------------------------------


Chorus

E-----------------------------------------------------------------------
B-----------------------------------------------------------------------
G---9----6--------------------------------------------------------------
D---9--9—6- 7--9--------------------------------------------------------
A---7--9—4- 7--9--------------------------------------------------------
E------7----5--7--------------------------------------------------------


 * Simply use these two different parts in time with the song and you’ve got it! *
    Can’t be incorrect because I wrote it.

Enjoy,
James.
            

comments powered by Disqus
↑ Back to top | Unsigned Tabs for Dismembered - One. Lyrics for acoustic guitar and electric guitar. Tablatures and chords are parodies/interpretations of the original songs. You may use it for private study, scholarship, research or language learning purposes only