» » »

Unsigned, Disfunction-Crash Tabs (ver.1)

Artists:  A B C D E F G H I J K L M N O P Q R S T U V W X Y Z # 

Disfunction-Crash Tabs (ver.1)

Unsigned Tabs
 Rating:
4/5 (4 votes)
Disfunction-Crash lessons Tabs too difficult? Try these video lessons and learn fast
                Verse
E--------------------------------------------------------------------------
B-------------------------------------------------------------------------
G---5----------------------------------------------------------------------
D------777777---5------------7----------9----------------------------------
A-------------------777777------999999-------11--11--11--11--11--11---------
E---------------------------------------------------------------------------
                                   Chorus
E------------------------------------------------------------
B------------------------------------------------------------
G-------------------------------------------------------------
D------------------7--7--5--5--3--3--2--0--------------------
A---5---5--5---5---5--5--3--3--1--1--0--0-----------------------
E---5---5--5---5-----------------------------------------------
                             Solo
E----------------------------------------------------------------15--15-15-----------
B------------------------------------------------16---16-16-----------------18------
G--------------------------------15--15--15-------------------18---------------------
D-----------------15--15-15------------------17-----------------------------------
A--15--15--15-----------------17--------------------------------------------------
E--------------18----------------------------------------------------------------

E----------17--17-------------------------------------------
B--15--15----------15--15------------------------------------
G-------------------------17---------------------------------
D------------------------------15--15-------------------------
A--------------------------------------17---15---15-----------
E-----------------------------------------------------17--------
                                Bridge
E----------------------------------------------------
B----------------------------------------------------
G---------------------------------------------------
D----------------------------------------------------
A---4---5----7--5----4----7----5--4---3----2------------------
E---2---3----5--3----2----5----3--2---1----0----------
            
Submit corrections

comments powered by Disqus
↑ Back to top | Unsigned Tabs for Disfunction-Crash. Lyrics for acoustic guitar and electric guitar. Tablatures and chords are parodies/interpretations of the original songs. You may use it for private study, scholarship, research or language learning purposes only