» » »

Unsigned, Dimensions End - Desolate Bass tabs (ver.1)

Artists:  A B C D E F G H I J K L M N O P Q R S T U V W X Y Z # 

Dimensions End - Desolate Bass tabs (ver.1)

Unsigned Tabs
Rating:
0/5 (0 votes)
Dimensions End - Desolate lessons Tabs too difficult? Try these video lessons and learn fast
                This is just our first song and it works out pretty great.  You’ll definitely be hearing more about us later on.


Intro (Bass solo)
G------------------------------------------------------------------
D------------------------------------------------------------------
A------2--------2--3-3-3-3-3-3-3-3---------------------------------
E--0-0---0--0-0---0------------------------------------------------

G------------------------------------------------------------------
D------------------------------------------------------------------
A------2--------2--0-0-0-0-0-0-0-0---------------------------------
E--0-0---0--0-0---0------------------------------------------------

G------------------------------------------------------------------
D------------------------------------------------------------------
A------2--------2--0-0-0-0-0-0-0-0-3-3-3-3-3-3-3-3-3-3-3-3-3-3-3-3-
E--0-0---0--0-0---0------------------------------------------------

Chorus
G------------------------------------------------------------------
D------------------------------------------------------------------ 2x
A------------------------------------------------------------------
E-7-7-7-7-7-7-7-7--3-3-3--2-2-2-2----------------------------------

G------------------------------------------------------------------
D------------------------------------------------------------------ 2x
A------------------------------------------------------------------
E-7-7-7-7-7-7-7-7--2-2-2--3-3-3-3----------------------------------

Verse
G------------------------------------------------------------------
D------------------------------------------------------------------
A------2--------2--3-3-3-3-3-3-3-3---------------------------------
E--0-0---0--0-0---0------------------------------------------------

G------------------------------------------------------------------
D------------------------------------------------------------------
A------2--------2--0-0-0-0-0-0-0-0---------------------------------
E--0-0---0--0-0---0------------------------------------------------

G------------------------------------------------------------------
D------------------------------------------------------------------
A------2--------2--0-0-0-0-0-0-0-0-3-3-3-3-3-3-3-3-3-3-3-3-3-3-3-3-
E--0-0---0--0-0---0------------------------------------------------

Chorus
G------------------------------------------------------------------
D------------------------------------------------------------------ 2x
A------------------------------------------------------------------
E-7-7-7-7-7-7-7-7--3-3-3--2-2-2-2----------------------------------

G------------------------------------------------------------------
D------------------------------------------------------------------ 2x
A------------------------------------------------------------------
E-7-7-7-7-7-7-7-7--2-2-2--3-3-3-3----------------------------------

Verse
G------------------------------------------------------------------
D------------------------------------------------------------------
A------2--------2--3-3-3-3-3-3-3-3---------------------------------
E--0-0---0--0-0---0------------------------------------------------

G------------------------------------------------------------------
D------------------------------------------------------------------
A------2--------2--0-0-0-0-0-0-0-0---------------------------------
E--0-0---0--0-0---0------------------------------------------------

G------------------------------------------------------------------
D------------------------------------------------------------------
A------2--------2--0-0-0-0-0-0-0-0-3-3-3-3-3-3-3-3-3-3-3-3-3-3-3-3-
E--0-0---0--0-0---0------------------------------------------------

Chorus
G------------------------------------------------------------------
D------------------------------------------------------------------ 2x
A------------------------------------------------------------------
E-7-7-7-7-7-7-7-7--3-3-3--2-2-2-2----------------------------------

G------------------------------------------------------------------
D------------------------------------------------------------------ 2x
A------------------------------------------------------------------
E-7-7-7-7-7-7-7-7--2-2-2--3-3-3-3----------------------------------

Bridge
G------------------------------------------------------------------
D------------------------------------------------------------------ 2x
A------------------------------------------------------------------
E—7-7-0--7-7-0--0-0-0-0-3---7-7-0--7-7-0--0-0-0-0-2----------------

Pause
(And it Falls Down I’m...)

Chorus
G------------------------------------------------------------------
D------------------------------------------------------------------ 2x
A------------------------------------------------------------------
E-7-7-7-7-7-7-7-7--3-3-3--2-2-2-2----------------------------------

G------------------------------------------------------------------
D------------------------------------------------------------------ 2x
A------------------------------------------------------------------
E-7-7-7-7-7-7-7-7--2-2-2--3-3-3-3----------------------------------

Chorus
G------------------------------------------------------------------
D------------------------------------------------------------------ 2x
A------------------------------------------------------------------
E-7-7-7-7-7-7-7-7--3-3-3--2-2-2-2----------------------------------

G------------------------------------------------------------------
D------------------------------------------------------------------ 2x
A------------------------------------------------------------------
E-7-7-7-7-7-7-7-7--2-2-2--3-3-3-3----------------------------------

Outro (Bass solo)

G------------------------------------------------------------------
D------------------------------------------------------------------
A-----7-----9------------------------------------------------------
E-----------------8-----7------------------------------------------
            

comments powered by Disqus
↑ Back to top | Unsigned Bass for Dimensions End - Desolate. Lyrics for acoustic guitar and electric guitar. Tablatures and chords are parodies/interpretations of the original songs. You may use it for private study, scholarship, research or language learning purposes only