» » »

Unsigned, Demonology - We All Die Young Tabs (ver.1)

Artists:  A B C D E F G H I J K L M N O P Q R S T U V W X Y Z # 

Demonology - We All Die Young Tabs (ver.1)

Unsigned Tabs
 Rating:
4/5 (4 votes)
Demonology - We All Die Young lessons Tabs too difficult? Try these video lessons and learn fast
1
                "We All Die Young"
                                         By DEMONOLOGY

...what is life-
-how do u live it-
-what if u can't live it-
-were we dead before we were born-
-but I just guess that-
-WE ALL DIE YOUNG-

INTRO: distortion
e:|-------------------------------------------|
B:|-------------------------------------------|
G:|-------------------------------------------|
D:|-------------------------------------------|
A:|----------0--2-----2--1-----2--0-----0-----|
E:|-0--2--3--------3--------2--------1--------|

e:--------------------------------------------||
B:--------------------------------------------||
G:--------------------------------------------||
D:----------------------2--0------------------||
A:----------0--2-----2--------2-----0--2------||
E:-0--2--3--------3--------------3------------||

play this intro two times but the first time just play it normailly, and the last time do the
top line normaly and the second line palm muted and let the last note ring and then go into
the main riff of the song!


MAIN RIFF:
e:|------------------------------------------------------------------------|
B:|------------------------------------------------------------------------|
G:|------------------------------_3_-_3_-_3_-------------------------------|
D:|---------_3_-_3_-_3_--2-2-(2)-222-222-222----------_3_-_3_-_3_--5s7s5s4-|
A:|-2-2-(2)-222-222-222--0-0-(0)-000-000-000--5-5-(5)-555-555-555--3s5s3s2-|
E:|-0-0-(0)-000-000-000-----------------------3-3-(3)-333-333-333----------|
pm.     (.) ... ... ...      (.) ... ... ...      (.) ... ... ...



CHORUS:
the chorus is made up of chords:
  Am      E                  G      D
     x3      x3                x3      x6
e:-0-|| e:-0-|| e:-x-x-|| e:-3-|| e:-2-||
B:-1-|| B:-0-|| B:-x-x-|| B:-0-|| B:-3-||
G:-2-|| G:-1-|| G:-x-x-|| G:-0-|| G:-2-||
D:-2-|| D:-2-|| D:-x-x-|| D:-0-|| D:-0-||
A:-0-|| A:-2-|| A:-x-x-|| A:-2-|| A:---||
E:---|| E:-0-|| E:-x-x-|| E:-3-|| E:---||

play that over a couple of times while brody is singing!!

and then go back into the MAIN RIFF!


THE HEAVY PART:
                                                                    X3
e:|------------------------------------------------------------------||
B:|------------------------------------------------------------------||
G:|------------------------------------------------------------------||
D:|------------------------------------------------------------------||
A:|--2--2-2--2--2-2--2--2-2--2--2-2--5--5-5--5--5-5--4--4-4--3--3-3--||
E:|--0--0-0--0--0-0--0--0-0--0--0-0--3--3-3--3--3-3--2--2-2--1--1-1--||
PM      . .     . .     . .     . .     . .     . .     . .     . .


SOLO:
                                                    X3
e:|--------------------------------------------------||
B:|--------------------------------------------------||
G:|---------5---------5---------5---------5--7-7-77--||
D:|---------5---------5---------5---------5--7-7-77--||
A:|------------------------------------------7-7-77--||
E:|-0-0-5-7---0-0-5-7---0-0-5-7---0-0-5-7------------||
PM  . . . .   . . . .   . . . .   . . . .

play that and then go back to the MAIN RIFF and finish the song of with
the CHORUS and this outro:


OUTRO:
play it normally and get slower and at the end strum the "D" chord string by string and
let the last note ring!!

  Am      E                  G        
     x3      x3                x3      
e:-0-|| e:-0-|| e:-x-x-|| e:-3-|| e:-----2-||
B:-1-|| B:-0-|| B:-x-x-|| B:-0-|| B:----3--||
G:-2-|| G:-1-|| G:-x-x-|| G:-0-|| G:---2---||
D:-2-|| D:-2-|| D:-x-x-|| D:-0-|| D:--0----||
A:-0-|| A:-2-|| A:-x-x-|| A:-2-|| A:-0-----||
E:---|| E:-0-|| E:-x-x-|| E:-3-|| E:-------||
            
Submit corrections

comments powered by Disqus
↑ Back to top | Unsigned Tabs for Demonology - We All Die Young. Lyrics for acoustic guitar and electric guitar. 1 Tablatures and chords are parodies/interpretations of the original songs. You may use it for private study, scholarship, research or language learning purposes only