» » »

Unsigned, Demigod - Veins Run Dry Bass tabs (ver.1)

Artists:  A B C D E F G H I J K L M N O P Q R S T U V W X Y Z # 

Demigod - Veins Run Dry Bass tabs (ver.1)

Unsigned Tabs
 Rating:
4/5 (4 votes)
Demigod - Veins Run Dry lessons Tabs too difficult? Try these video lessons and learn fast
1
                Drop D Tuning

Intro, guitar plays this twice slow before bass comes in.

G-----------------------------------------------|
D-----------------------------------------------|
A-----7h8-----5h7-----1h3-----1p0---------------|
D-0-0-----0-0-----0-0-----0-0-------------------|

|----------------------------------------------------------------------|
|----------------------------------------------------------------------|
|-----7h8-----5h7-----8p7-----7p5-----1h3-----1p0-----3p1-----0h1-/5-5-|
|-0-0-----0-0-----0-0-----0-0-----0-0-----0-0-----0-0-----0-0----------|

This part of the intro is played all slap and pop is also used in the breakdown:

|-------------------------|
|-------------------------|
|-------------------------|
|-0h3-0h3-0-0h3-0h3-0-3p2-|   
On 8th time, replace the last 3p2 with 2h3 on the high d string.

Guitar plays verse riff 4 times, at the end of the 4th time slide down the low d string.
Verse riff: played all slap and pop

|---------------------|
|---------------------|
|---------------------|
|-0h3-0h3-0-0h2h3-0-2-| 
Every 4th time that last low E is popped as the octave,
either 2nd fret on the high d string or 9th fret on the g string, and the last 
time play 2h3p2 on the high d string.

Chorus riff:

|---------------------------------|
|---------------------------------|
|---------------------------------|
|-3-3-3-3-0-0-0-0-8-8-8-8-5-5-5-5-|

Breakdown:
All slap and pop
|---------------------------|
|-----2-------3-----7-----5-|
|---------------------------|
|-0-0---x-0-0---0-0---0-0---|  
On the last time play the g in place of the a then play
the a in the place of the g but an octave down on the low
d string and slide down to an f and hit the f twice, then
go into slap section of the intro, then the verse riff 4 times,
then the chorus riff, second time after singing stops on the last
chorus only hit the g twice to end the song.
            
Submit corrections

comments powered by Disqus
↑ Back to top | Unsigned Bass for Demigod - Veins Run Dry. Lyrics for acoustic guitar and electric guitar. 1 Tablatures and chords are parodies/interpretations of the original songs. You may use it for private study, scholarship, research or language learning purposes only