» » »

Demigod - December Bass tabs (ver.1)

Artists:  A B C D E F G H I J K L M N O P Q R S T U V W X Y Z # 

Demigod - December Bass tabs (ver.1)

Unsigned
Rating:
0/5 (0 votes)

Hard to play? Try these video lessons and learn fast.
                Standard Tuning

Intro/Outro
G-----16\12----------------------|
D-----------14/16----------------|
A--------------------------------|
E-0-2----------------------------|
B--------------------------------|
Tap E-string notes with right hand and hold the f#
while tapping out the notes on the top two strings
with left hand.

Verse

|--------------------------------|
|--------------------------------|
|--------------------------------|
|-------0-----2---------0--------|
|-0-2-3---3-2---0-0-2-3---3-2-3--|
This is played extremely fast to match 
the guitar and is spaced only for
easier reading of the tab.

Chorus

|-----------------------------|
|-----------------------------|
|-------------------5-3-2-3---|
|--------3-2-0--------------2-|
|-0---------------------------|
Hold the opens through the palm-muting
and the last note has a vibrato.

Breakdown/Part during guitar solo

|-------------------------------------------------|
|-------------------------------------------------|
|-------------------------------------------------|
|-----------------------3/2---------------------3-|
|-0-0-0-0-0-0-0-0-0-0-0-----0-0-0-0-0-0-0-0-0-0---|
            
Hard to play? Try these video lessons and learn fast. | Correct




comments powered by Disqus
↑ Back to top | Tablatures and chords are parodies/interpretations of the original songs. You may use it for private study, scholarship, research or language learning purposes only