» » »

Unsigned, Delayed Reaction - The Maria Song Tabs (ver.1)

Artists:  A B C D E F G H I J K L M N O P Q R S T U V W X Y Z # 

Delayed Reaction - The Maria Song Tabs (ver.1)

Unsigned Tabs
Rating:
0/5 (0 votes)
Delayed Reaction - The Maria Song lessons Tabs too difficult? Try these video lessons and learn fast
                The Maria Song
Delayed Reaction - delayed reaction has changed its name to rejects of society
2003


Intro 2x
e-----------------------------------------------------------------
b-----------------------------------------------------------------
G-----------------5-----------------------------------------------
D-----3-----5---5-------------------------------------------------
A---3-----5---3---------------------------------------------------
E-1-----3---------------------------------------------------------


Verse/chorus play for the rest of the song 
e-----------------------------------------------------------------
b-----------------------------------------------------------------
G-----------------------5555-5555-5555-5555-----------------------
D-3333-3333-5555--5555--5555-5555-5555-5555-----------------------
A-3333-3333-5555--5555--3333-3333-3333-3333-----------------------
E-1111-1111-3333--3333--------------------------------------------

Ending 1x
e-----------------------------------------------------------------
b-----------------------------------------------------------------
G-------------5---------------------------------------------------
D-3-----5-----5---------------------------------------------------
A-3-----5-----3---------------------------------------------------
E-1-----3---------------------------------------------------------


VERSE---there was a girl named maria. She was obbssesed over davey havok. She sat down and wrote him a letter about how much she loved him. Eventhough he was gay, she loved him anyway. She said i want to rip off your clothes and lick your bare ass. Davey Never wrote back  because he thought this girl was on crack.

CHORUS---Maria what are you thinking?ever wanting a butter ass like that? he's Jades b**ch in bed, hes probably giving him head.
            
Submit corrections

comments powered by Disqus
↑ Back to top | Unsigned Tabs for Delayed Reaction - The Maria Song. Lyrics for acoustic guitar and electric guitar. Tablatures and chords are parodies/interpretations of the original songs. You may use it for private study, scholarship, research or language learning purposes only