» » »

Deadline - Fake Bass tabs (ver.1)

Artists:  A B C D E F G H I J K L M N O P Q R S T U V W X Y Z # 

Deadline - Fake Bass tabs (ver.1)

Unsigned
Rating:
0/5 (0 votes)

Hard to play? Try these video lessons and learn fast.
                Back ground:
Members: Frenzy : Bass
         Gele : Guitar
         Psyco : Drumz
         Jas : Vocals

This the first track from are debut album 
we will have the whole album finish and mixed
down i time for christmas if we are lucky a bit before.

Tuning : E A D G

Intro:
 |-------------------|
 |-------------------| Repeat x4
 |-------------------|
 |-2-2-2-2---1-------|


Verse 1
 |------------------------------------------------------|
 |------------------------------------------------------| X 10
 |----33333333-----11111111-----444444444----2222222222-|
 |-00----------00------------00------------00-----------|



Verse 2
 |--------------------|
 |--------------------| Repeat x10
 |--------------------|
 |-2-2-2-2--4-1-------|

Chorus
 |------------------------------|
 |------------------------------|
 |----------5/6\5---------2\1/2-| Repeat x6
 |-4-4-4-4--------4-4-4-4-------|

Verse 3 
 |------------------------------|
 |------------------------------| repeat x 10
 |---4---4---4---4--33----------|
 |-0---0---0---0----------------|

Order :
Intro 
Verse 1
Chorus
Verse 2
Chorus
Verse 3
Chorus(to fade)


Thanx very much when we finish the C.D we will let u know!
 i will leave an e-mail
adress so u can contact me about up and coming gigs 
and how to get a copy of are C.D (mirror Image) in the winter
            
Hard to play? Try these video lessons and learn fast. | Correct




comments powered by Disqus
↑ Back to top | Tablatures and chords are parodies/interpretations of the original songs. You may use it for private study, scholarship, research or language learning purposes only