>
 >
Dario Utichi - Jerk

Dario Utichi - Jerk Guitar Tabs

Unsigned - Dario Utichi - Jerk chords, tabs, tablatures, lyrics

Guitar lessons | Add/correct | Request | Top 50 tabs Artists:  A B C D E F G H I J K L M N O P Q R S T U V W X Y Z 0-9

Dario Utichi - Jerk Guitar Tabs – Unsigned

CD, Sheet music, Poster

Do you like Dario Utichi - Jerk? Share with your friends now
Tabs
Intro part 1 / Middle eight/ Ending 
|----------------------------------------------------------------------------------|
|----------------------------------------------------------------------------------|
|----------------------------------------------------------------------------------|
|----------4-4-4-2-2-----------4-4-4-2-2-----------4-4-4-2-2------------4-4-4-2-2--|
|---2-2-2---------------4-4-4------------------------------------------------------|
|-------------------------------------------4-4-4----------------2-2-2-------------|

Intro part 2 / Pre chorus/ Ending
|----------------------------------------------------------------------------------|
|----------------------------------------------------------------------------------|
|---4-4-4-4-4-4-4---6-6-6-6-6-6-6-6------------------------------------------------|
|---4-4-4-4-4-4-4---6-6-6-6-6-6-6-6---6-6-6-6-6-6-6-6----4-4-4-4-4-4-4-4-----------|
|---2-2-2-2-2-2-2---4-4-4-4-4-4-4-4---6-6-6-6-6-6-6-6----4-4-4-4-4-4-4-4----------|-|------------------------------------4-4-4-4-4-4-4-4---2-2-2-2-2-2-2-2------------|

Verse part one                                                                                                            
|--------------------------|
|--------------------------|
|---4---------------------| 
|---4---Let Ring--------| 
|---2---------------------|
|--------------------------|

Verse part two      
|----------------------------------------------------------------------------------|
|----------------------------------------------------------------------------------|
|----------------------------------------------------------------------------------|
|---2-2-2----2-2-2----2-2-2----2-2-2----2-2-2----2-2-2----2-2-2----2-2-2-----------|
|---0-0-0----0-0-0----0-0-0----0-0-0----0-0-0----0-0-0----0-0-0----0-0-0-----------|
|----------------------------------------------------------------------------------|

Chorus
|---------------------------------------------------------------------------------------------------|
|----------------------------------------------------------------------------------|
|---6-6-6-6-6-6-6-6----------------------------------------------------------------|
|---6-6-6-6-6-6-6-6---8-8-8-8-8-8-8-8---4-4-4-4-4-4-4-4---6-6-6-6-6-6-6-6----------|
|---4-4-4-4-4-4-4-4---8-8-8-8-8-8-8-8---4-4-4-4-4-4-4-4---6-6-6-6-6-6-6-6----------|
|-------------------------6-6-6-6-6-6-6-6---2-2-2-2-2-2-2-2---4-4-4-4-4-4-4-4------|

Interlude
|-----------------------------------------|      |---------------------------------|
|-----------------------------------------|      |---------------------------------|
|------8--6----8--6-----8--6----8--6------|      |--------------------------------
|---6--------8---------------------------|x2     |---6--x8---8--x8--------------|x2
|-------------------8--------6------------|      |-------------------8--x8---6-x8|
|-----------------------------------------|      |--------------------------------|

Intro 1 (x2), intro 2 (x2), verse p.1, verse p.2, pre chorus (x2), chorus (x2), middle 8 (x2), verse p.1, verse p.2, pre chorus (x2), chorus (x2), interlude, middle 8 (x2), pre chorus (x2), chorus (x4), ending (x2)





Comments


Popular Unsigned tabs & chords
Achik Named Bob - Case Closed Bass Tabs
Splat - Caramel Bass Tabs
Abyss. - Omega White Tabs
Blue Mohican Tabs
Cool Lil Riff Tabs
Discord-All Goes Numb Tabs
Egoshed-The Dark Inside Us Tabs
Floor 13 - Home Again Tabs
Hagama - Goodbye Tabs
Maleko - Untitled Tabs


Song lyrics



↑ Back to top | Tablatures and chords are parodies/interpretations of the original songs. You may use it for private study, scholarship, research or language learning purposes only
© 2014 AZChords.com Contact us | Privacy policy | DMCA | Add/correct tabs | Request tabs | Top 50 tabs