» » »

Unsigned, Dagahzed- Psychological Downer Tabs (ver.1)

Artists:  A B C D E F G H I J K L M N O P Q R S T U V W X Y Z # 

Dagahzed- Psychological Downer Tabs (ver.1)

Unsigned Tabs
Rating:
0/5 (0 votes)
Dagahzed- Psychological Downer lessons Tabs too difficult? Try these video lessons and learn fast
                Have fun with this one!



 
(FIG 1) Slightly distorted for intro 4x's
 |--------------------------------------------------------------------------------|
 |--------------------------------------------------------------------------------|
 |--------------------------------------------------------------------------------|
 |--9-------9---9-------9-------9------9-------9------9---9----7--9-9-------------|
 |7---7--8----8---8---7--7--8-------8----8---7---7--8---8---8--5--7-7-------------|
 |--------------------------------------------------------------------------------|
 
(FIG 2) Chorus line 2x's
 |--------------------------------------------------------------------------------|
 |--------------------------------------------------------------------------------|
 |--------------------------------------------------------------------------------|
 |--------------------------------------------------------------------------------|
 |------------7--7--7--8-----8----5---7---7--------7--7--7--8---8---8-----5--5----|
 |------------5--5--5--6-----6----3---5---5--------5--5--5--6---6---6-----3--3----|
 
(to FIG 1)

(FIG 3)Guitar 1plays FIG 1 while guitar 2 plays this) 4X's

 |--------------------------------------------------------------------------------|
 |--------------------------------------------------------------------------------|
 |--------------------------------------------------------------------------------|
 |--------------------------------------------------------------------------------|
 |-2-2-2-3-3-3-2-2-2-3-3-3-2-2-2-3-3-3-3-5-5--------------------------------------|
 |-0-0-0-1-1-1-0-0-0-1-1-1-0-0-0-1-1-1-1-3-3--------------------------------------|
 (to FIG 2) (REPEAT)

SOLO:

 |--------------------------------------------------------------------------------|
 |--------------------------------------------------------------------------------|
 |-----------7--------------------9--------------------10--9-7-9-7-------7--------|
 |---9-9-9-9-----9-9-9-9-9-9-9-9-------9-9-9-9-9-9-9------------------10-----9----|
 |--------------------------------------------------------------------------------|
 |--------------------------------------------------------------------------------|
 

 |--------------------------------------------------------------------------------|
 |------------------------------------------------10--------------------------12^-|
 |---------------------12---------------------------------------------------------|
 |-----12-10-9-12-10-9-----10--12-10-9-12-10-9------10-12-10-9-12-10-9------------|
 |--------------------------------------------------------------------------------|
 |--------------------------------------------------------------------------------|
 
muted
 |--------------------------------------------------------------------------------|
 |--------------------------------------------------------------------------------|
 |---13-12-10--12-10------------10------------------------------------------------|
 |-------------------------12--------13-12---13-12-10-----------------------------|
 |------------------------------------------------------------12------------------|
 |--------------------------------------------------------------------------------|
 (to FIG 3Muted) (FIG 2) ( FIG 1)

DAGAHZED are:
Casey Hill- Guitar/Vocals
Mark Camacho- Lead Guitar
Tony Guzman- Bass
Nick Justice- Drums
            
Submit corrections

comments powered by Disqus
↑ Back to top | Unsigned Tabs for Dagahzed- Psychological Downer. Lyrics for acoustic guitar and electric guitar. Tablatures and chords are parodies/interpretations of the original songs. You may use it for private study, scholarship, research or language learning purposes only