» » »

Unsigned, Dagahzed- Inconceived Tabs (ver.1)

Artists:  A B C D E F G H I J K L M N O P Q R S T U V W X Y Z # 

Dagahzed- Inconceived Tabs (ver.1)

Unsigned Tabs
 Rating:
4/5 (4 votes)
Dagahzed- Inconceived lessons Tabs too difficult? Try these video lessons and learn fast
1
                This is played with a Zoom 505II effect pedal on F4. The same effect Randy Rhodes uses.



( FIG 1) Slide 4x's
 |-------------------------------------------------------------------------------|
 |-------------------------------------------------------------------------------|
 |-------------------------------------------------------------------------------|
 |-----------2-------------------------------------------------------------------|
 |-----------2-------------------------------------------------------------------|
 |------14/--0-------------------------------------------------------------------|

(FIG 2) Muted twice, then open 6 x's
 |-------------------------------------------------------------------------------|
 |-------------------------------------------------------------------------------|
 |-------------------------------------------------------------------------------|
 |-----------------------------------------------------------------5-4-3---------|
 |--------------5-4-3----------------5-4-3----------------5-4-3------------5-4-3-|
 |--0-0-0-0-------------0-0-0-0-------------0-0-0-0------------------------------|
 
(FIG 3) Guitar one (4 x's)
|--------------------------------------------------------------------------------|
 |-------------------------------------------------------------------------------|
 |-------------------------------------------------------------------------------|
 |-------------------------------------------------------------------------------|
 |----2--2--2--2-----------------------------------------------------------------|
 |----0--0--0--0-----------------------------------------------------------------|
 
Guitar two

 |-----17-15-14-12-14-12-10-9-7-6-9-7-5------------------------------------------|
 |----------------------------------------17-15-14-12-14-12-10-9-7-6-9-7-5-------|
 |-------------------------------------------------------------------------------|
 |-------------------------------------------------------------------------------|
 |-------------------------------------------------------------------------------|
 |-------------------------------------------------------------------------------|
  |------------------------------------------------------------------------------|
                                                                                 pickslide
 |-------------------------------------------------------------------------------|
 |-------------------------------------------------------------------------------|
 |-------------------------------------------------------------------------------|
 |-----2-3-5-3-5-7-8-7-8-10-12-14-15-17------------------------------------------|
 |----------------------------------------------------------------------------2--|
 |-----------------------------------------------------------14/--------------0--|

(FIG 4) Verse 4x's


 |-------------------------------------------------------------------------------|
 |-------------------------------------------------------------------------------|
 |-------------------------------------------------------------------------------|
 |-------------------------------------------------------------------------------|
 |--------------5-----------------7----------------9-----------------------------|
 |-----0-0-0-0--3--0-0-0-0-0-0-0--5--0-0-0-0-0-0-0-7--0-0-0-0-0-0-0--------------|
 

 |-------------------------------------------------------------------------------|
 |-------------------------------------------------------------------------------|
 |-------------------------------------------------------------------------------|
 |-------------------------------------------------------------------------------|
 |-----7---5---------------------------------------------------------------------|
 |-----5---3---------------------------------------------------------------------|
 
(FIG 5) Chorus 4x's


 |-------------------------------------------------------------------------------|
 |-------------------------------------------------------------------------------|
 |-------------------------------------------------------------------------------|
 |---------------------7----7----------------------------------------------------|
 |--------2----2-------5----5--------7----8-----3----3---------------------------|
 |--------0----0---------------------5----6-----1----1---------------------------|
 
Then: 4x's

 |--------------------------------------------------------------------------------|
 |--------------------------------------------------------------------------------|
 |--------------------------------------------------------------------------------|
 |--------------------------------------------------------------------------------|
 |------------------------3--3----------------------------------------------------|
 |------0-0-0-0-0-0-0-0-0-1--1----------------------------------------------------|

(to FIG 2) (go through Fig 5) (then FIG 2 into solo)

SOLO:(Hill)



 

 |--------------------------------------------------------------------------------|
 |---------------------------------------------53535353535353535353535353535353---|
 |----------------------------------5-4-3-----------------------------------------|
 |-------------------------5-4-3--------------------------------------------------|
 |----------------5-4-3-----------------------------------------------------------|
 |-----0-0-0-0--------------------------------------------------------------------|
 

 |-------5---3-----------3--------------------------------------------------------|
 |-----------------5-------------5------3----------5-------3--------------3-------|
 |------------------------------------------------------------------5-------------|
 |--------------------------------------------------------------------------------|
 |--------------------------------------------------------------------------------|
 |--------------------------------------------------------------------------------|
 


 |--------------------------------------------------------------------------------|
 |----------------------3------------------5--------------------7-----------------|
 |------2---2-----2h4-------4---4----4h6--------6---6----6h8---------7---7----7h9-|
 |--------------------------------------------------------------------------------|
 |--------------------------------------------------------------------------------|
 |--------------------------------------------------------------------------------|
 


 |17-----17---------17--17------17----17-----17----17^^^^--17p15p12--15p13p12-----|
 |--------------------------------------------------------------------------------|
 |--------------------------------------------------------------------------------|
 |--------------------------------------------------------------------------------|
 |--------------------------------------------------------------------------------|
 |--------------------------------------------------------------------------------|
 


 |-------13p12p10----12p10p8----10p8p787878787^^^^^^------------------------------|
 |--------------------------------------------------------------------------------|
 |--------------------------------------------------------------------------------|
 |--------------------------------------------------------------------------------|
 |--------------------------------------------------------------------------------|
 |--------------------------------------------------------------------------------|
 (to FIG 2) (FIG 5) (FIG 2)

DAGAHZED are:
Casey Hill- Guitar/Vocals
Mark Camacho- Lead Guitar
Tony Guzman- Bass
Nick Justice- Drums



By Hill/Camacho/Guzman
            
Submit corrections

comments powered by Disqus
↑ Back to top | Unsigned Tabs for Dagahzed- Inconceived. Lyrics for acoustic guitar and electric guitar. 1 Tablatures and chords are parodies/interpretations of the original songs. You may use it for private study, scholarship, research or language learning purposes only