>
 >
Crash Kills 5 - Hugo Boss

Crash Kills 5 - Hugo Boss Guitar Tabs

Unsigned - Crash Kills 5 - Hugo Boss chords, tabs, tablatures, lyrics

Guitar lessons | Add/correct | Request | Top 50 tabs Artists:  A B C D E F G H I J K L M N O P Q R S T U V W X Y Z 0-9

Crash Kills 5 - Hugo Boss Guitar Tabs – Unsigned

CD, Sheet music, Poster

Do you like Crash Kills 5 - Hugo Boss? Share with your friends now
Tabs
Hello i figured i would tab this song out beacuse it's sooo cool!! 

"Hugo Boss"
Lyrics by Paige Clarke
Music by Crash



 Tuning: Standard EADGBE 

 INTRO
E ------------------------------------------------------------------------------
B ------------------------------------------------------------------------------
G -------9-/-7-/-9-/-7-/-9-/-7-/-9-/-7-/-9-/-7-/-9-/-7-/-9-/-7-/-9-/-7----------
D ------------------------------------------------------------------------------
A -------7-/-5-/-7-/-5-/-7-/-5-/-7-/-5-/-7-/-5-/-7-/-5-/-7-/-5-/-7-/-5----------
E ------------------------------------------------------------------------------
   With Wah

 CHORUS
   Em            C                   D                  Em
E ------------------------------------------------------------------------------
B ------------------------------------------------------------------------------
G ------------------------0-2~2-0----------------------------7-9~-----7-9~------
D ----------5~------2-0-2---------2----7-7-5---7-7-5-------9-------9------------
A ----7-5-7----7--3------------------5-------7-------7--------------------------
E --0----------------------------------------------------0-------0--------------
    With Distortion


 VERSE

E --------0---------------------------------------------------------------------
B --------0---------------------------------------------------------------------
G --------0---LET RING---------------9-7-9-7-9-7-9-7----------------------------
D ----2-2-2---------------------------------------------------------------------
A ----2-2-2--------------------------7-5-7-5-7-5-7-5----------------------------
E ----0-0-0---------------------------------------------------------------------
p.m.  . .                 With delay . . . . . . . .

 Alternate chorus part

E ------------------------------------------------------------------------------
B ------------------------------------------------------------------------------ 
G ---1212-9-12-9-12-9-1212-9-12-9-12-9--77777-999999---------------------------- 
D ---1212-9-12-9-12-9-1212-9-12-9-12-9--77777-999999----------------------------  
A ------------------------------------------------------------------------------
E ------------------------------------------------------------------------------

  SOLO   (/) means slide down then up from 0                     (22)  
E -------------------------------------------15151515-19191919-22222222------------
B -------------------------------------------17171717-17171717-22222222---Slider----
G -12121212-/-14141414-/-19191919-/-21212121------------------------Over the pickups
D -12121212-/-14141414-/-19191919-/-21212121---------------------------Pitch of E--
A ---------------------------------------------------------------------------------
E ---------------------------------------------------------------------------------

End on E

Arrangement of the song

INTRO/OUTRO
CHORUS (X2)
VERSE (X6)
CHORUS (X2)
VERSE (X4)
CHORUS (X2)
ALTERNATE CHORUS (X2)
SOLO 
CHORUS (X4)
INTRO/OUTRO





Comments


Popular Unsigned tabs & chords
1-14 Bass Tabs
Funkplant - The Awakening Veriant Bass Tabs
Hijacked Mojo - Nothin New Under The Sun Bass Tabs
Lithium - All I Wanna Do Is Rock & Roll Bass Tabs
Lithium - Mr Fatigue Bass Tabs
Moeband - All 4 Strings Bass Tabs
Sircadium Rhythm Bass Tabs
Twinkle Twinkle Little Star Bass Tabs
Aceglave - When You Lie Tabs
Coming In Tabs


Song lyrics



↑ Back to top | Tablatures and chords are parodies/interpretations of the original songs. You may use it for private study, scholarship, research or language learning purposes only
© 2014 AZChords.com Contact us | Privacy policy | DMCA | Add/correct tabs | Request tabs | Top 50 tabs