» » »

Unsigned, Craig-A-Death: Lamb Of Satan Tabs (ver.1)

Artists:  A B C D E F G H I J K L M N O P Q R S T U V W X Y Z # 

Craig-A-Death: Lamb Of Satan Tabs (ver.1)

Unsigned Tabs
Rating:
0/5 (0 votes)
Craig-A-Death: Lamb Of Satan lessons Tabs too difficult? Try these video lessons and learn fast
                VERSE:
:---------------------------------------------------------------
:---------------------------------------------------------------
:---------------------------------------------------------------
:--------6-6-6-6-5-5-4-4-3-3-3-3---------6-6-6-6-----3-3--------
:5-5-5-5-4-4-4-4-3-3-2-2-1-1-1-1-5-5-5-5-4-4-4-4-3-3-1-1-5-5-5-5
:3-3-3-3-------------------------3-3-3-3---------1-1-----3-3-3-3  (2x's)

:---------------------------------------------------------------
:---------------------------------------------------------------
:---------------------------------------------------------------
:--------6-6-6-6-5-5-4-4-3-3-3-3---------6-6-6-6-----3-3--------
:5-5-5-5-4-4-4-4-3-3-2-2-1-1-1-1-5-5-5-5-4-4-4-4-3-3-1-1-5-5-5-5
:3-3-3-3-------------------------3-3-3-3---------1-1-----3-3-3-3  (2x's)

CHORUS:
:-------------------------------------------------------------------
:-------------------------------------------------------------------
:-------------------------------------------------------------------
:--------7-7-7-7-8-8-7-7-6-6-6-6---------7-7-7-7-8-8-9-9-10-10-10-10
:7-7-7-7-5-5-5-5-6-6-5-5-4-4-4-4-7-7-7-7-5-5-5-5-6-6-7-7-8--8--8--8
:5-5-5-5-------------------------5-5-5-5---------------------------- (2x's)

BRIDGE:
:-------------------------------
:-------------------------------
:-------------------------------
:----------------7-7-7-7--------
:9-9-9-9-9-9-9-9-5-5-5-5-7-7-7-7
:7-7-7-7-7-7-7-7---------5-5-5-5

Order of song:
VERSE
CHORUS
VERSE
CHORUS
BRIDGE
CHORUS
            

comments powered by Disqus
↑ Back to top | Unsigned Tabs for Craig-A-Death: Lamb Of Satan. Lyrics for acoustic guitar and electric guitar. Tablatures and chords are parodies/interpretations of the original songs. You may use it for private study, scholarship, research or language learning purposes only