» » »

Country Tabs (ver.1)

Artists:  A B C D E F G H I J K L M N O P Q R S T U V W X Y Z # 

Country Tabs (ver.1)

Unsigned
Rating:
0/5 (0 votes)
Tabs too difficult? Try these video lessons and learn fast.
                (Riff)
I made this riff up whilst with my friend Zack inspired by none other than Tenacious D

E|----------------------------------------------------------------
B|-1---11-0---1---11-0---1-0---1---11-0---1---11-0---1-0----------
G|-2---22-2---2---22-2---2-2---2---22-2---2---22-2---2-2----------
D|-2---22-2---2---22-2---2-2---2---22-2---2---22-2---2-2----------
A|----------------------------------------------------------------
E|----------------------------------------------------------------

E|----------------------------------------------------------------
B|----------------------------------------------------------------
G|-2---22-0---2---22-0---2-0---4---44-2---4---44-2---5-4----------
D|-3---33-3---3---33-3---3-3---3---33-3---3---33-3---5-5----------
A|-3---33-3---3---33-3---3-3---3---33-3---3---33-3---5-5----------
E|----------------------------------------------------------------

This is a classic example of a fast country rock riff
            
Tabs too difficult? Try these video lessons and learn fast.


comments powered by Disqus
↑ Back to top | Tablatures and chords are parodies/interpretations of the original songs. You may use it for private study, scholarship, research or language learning purposes only