» » »

Cory Bantic-Sweet Dreams Cover Tabs (ver.1)

Artists:  A B C D E F G H I J K L M N O P Q R S T U V W X Y Z # 

Cory Bantic-Sweet Dreams Cover Tabs (ver.1)

Unsigned
Rating:
0/5 (0 votes)

Tabs too difficult? Try these video lessons and learn fast.
                E |---------------------3-3-----2-2----------------------------------|
  B |---2-2---2---2---2-------5>7-----4>5------------------------------|
  G |-------4---5---4--------------------------------------------------|
  D |------------------------------------play that twice---------------|
  A |------------------------------------------------------------------|
  E |------------------------------------------------------------------|

during this part you will want to strum each chord about eleven times.
just do it how you think it sounds good.
  E |-------------------------------|
  B |-------------------------------|
  G |---------5---------------------|
  D |-6---5---5--6--5>6--5----------|
  A |-6---5---3--6--5>6--5----------|
  E |-4---3------4--3>4--3----------|

after you play that part immediately go into the first part again, except start
on the 3rd fret and change the whole thing accordingly.
            
Tabs too difficult? Try these video lessons and learn fast.




comments powered by Disqus
↑ Back to top | Tablatures and chords are parodies/interpretations of the original songs. You may use it for private study, scholarship, research or language learning purposes only