» » »

Copper Flame - Giving You Up Bass tabs (ver.1)

Artists:  A B C D E F G H I J K L M N O P Q R S T U V W X Y Z # 

Copper Flame - Giving You Up Bass tabs (ver.1)

Unsigned
Rating:
0/5 (0 votes)

Hard to play? Try these video lessons and learn fast.
                Copper flame - Giving You Up

Earl/Williamson/Bridgeman 


Main riff:

G:--------------------------------------------
D:--------------------------------------------
A:--5--5-5-5--3--3-3-3------------------------
E:---------------------3--3-3-3--1--1-1-1-----

Variations to Main Riff:

G:---------------------------------------------
D:---------------------------------------------
A:--5--5-5-5--3--3-3-------------------------3-
E:--------------------3--3-3-3--1--1-1-1--3----

G:-------------------------------------------------
D:-------------------------------------------------
A:--5--5-5-5--3--3-3-3-5----------3-5------------3-
E:-----------------------3--3-3-3-----1--1-1-1-3---

These variations sound great when played properly,
but its such a new song we don't even know the right
timing so its hard to tab... for more info on copper flame
            
Hard to play? Try these video lessons and learn fast. | Correct




comments powered by Disqus
↑ Back to top | Tablatures and chords are parodies/interpretations of the original songs. You may use it for private study, scholarship, research or language learning purposes only