» » »

Unsigned, Cool Lil Tabs (ver.1)

Artists:  A B C D E F G H I J K L M N O P Q R S T U V W X Y Z # 

Cool Lil Tabs (ver.1)

Unsigned Tabs
Rating:
0/5 (0 votes)
Hard to play? Try these video lessons and learn fast.
                (Riff)
cool riff that i made up

standard tuning

  clean
|---------------------------------------------------------------------------------|
|---------------------------------------------------------------------------------|
|------0-------------------0-------------------0-------------------0--------------|
|---10---10---10---10---10---10---10---10---10---10---10---10---10---10---10---10-|
|-0---------0----0----0---------0----0----8---------8----8----8---------8----8----|
|---------------------------------------------------------------------------------|

 distortion kiks in abot halfway through the strumming part
|----------------------------------------------------------|--|
|----------------------------------------------------------|--|
|------9-------------------9---------9---------9---------9-|9-|x8
|---10---10---10---10---10---10---10---10---10---10---10---|10|
|-8---------8----8----8---------8---------8---------8------|8-|
|----------------------------------------------------------|--|

it would be cool if someone made up some power chords to after this 
(wink, wink, knudge knudge)
            

comments powered by Disqus
↑ Back to top | Unsigned Tabs for Cool Lil. Lyrics for acoustic guitar and electric guitar. Tablatures and chords are parodies/interpretations of the original songs. You may use it for private study, scholarship, research or language learning purposes only