» » »

Unsigned, Cool Blues Bass tabs (ver.1)

Artists:  A B C D E F G H I J K L M N O P Q R S T U V W X Y Z # 

Cool Blues Bass tabs (ver.1)

Unsigned Tabs
Rating:
0/5 (0 votes)
Hard to play? Try these video lessons and learn fast.
                (Riff)
g----------------------
d----------------------
a------------------5h7-
E--7-7--7-7---5h7-----7


g---------------------
d-----------------5h7-
a--7-7--7-7---5h7----7
E---------------------


g----------------------
d----------------------
a------------------5h7-
E--7-7--7-7---5h7-----7


g----------------------
d------------------7h9-
a--9-9--9-9---7h9-----9
E----------------------


g---------------------
d-----------------5h7-
a--7-7--7-7---5h7----7
E---------------------


g----------------------
d----------------------
a------------------5h7-
E--7-7--7-7---5h7-----7



this is a song i made for my band we put it on a cd so if you use it as a riff
please tell them you got it off a tab from  Nate Ingram warren ohio 
please rate!
            

comments powered by Disqus
↑ Back to top | Unsigned Bass for Cool Blues. Lyrics for acoustic guitar and electric guitar. Tablatures and chords are parodies/interpretations of the original songs. You may use it for private study, scholarship, research or language learning purposes only