» » »

Unsigned, Conformity - Parasite Tabs (ver.1)

Artists:  A B C D E F G H I J K L M N O P Q R S T U V W X Y Z # 

Conformity - Parasite Tabs (ver.1)

Unsigned Tabs
Rating:
0/5 (0 votes)
Conformity - Parasite lessons Tabs too difficult? Try these video lessons and learn fast
                ############################################################
#### Tab is 100% correct considering I wrote this song. ####	
##### Tab by Bryan Woods, guitar player in conformity. #####

				PARASITE

Tuning:  Standard (Half Step Down)

Intro/Verse Riff:

   A5      C5	    G5      B5
Eb----------------I----------------I
Bb----------------I----------------I
Gb---------5-5-5-5I---------4-4-4-4I
Db-7-7-7-7-5-5-5-5I-5-5-5-5-4-4-4-4I
Ab-7-7-7-7-3-3-3-3I-5-5-5-5-2-2-2-2I
Eb-5-5-5-5--------I-3-3-3-3--------I

   A5      C5       D5      E5
Eb----------------I----------------I
Bb----------------I----------------I
Gb---------5-5-5-5I-7-7-7-7-9-9-9-9I
Db-7-7-7-7-5-5-5-5I-7-7-7-7-9-9-9-9I
Ab-7-7-7-7-3-3-3-3I-5-5-5-5-7-7-7-7I
Eb-5-5-5-5--------I----------------I

Chorus Riff:

   B5              A5   B5       C#5    E5
Eb--------I-----------I--------I-------------I
Bb--------I-----------I--------I-------------I
Gb--------I-----------I--------I-------------I
Db-9-9-9-9I-11-11--7-7I-9-9-9-9I-11-11--14-14I
Ab-9-9-9-9I-11-11--7-7I-9-9-9-9I-11-11--14-14I
Eb-7-7-7-7I--9--9--5-5I-7-7-7-7I--9--9--12-12I

Solo:

Eb------------------------I--------12b13==r12-I
Bb-8/11--11h12p11-13b14r13I-12p11-------------I
Gb------------------------I-------------------I
Db------------------------I-------------------I
Ab------------------------I-------------------I
Eb------------------------I-------------------I

Eb-11h13p11---------------I-------------------I
Bb----------12------------I-------------------I
Gb-------------11h13p11---I-------------------I
Db----------------------12I-------------------I
Ab------------------------I-11h13p11----------I
Eb------------------------I-------------12~~~~I

Eb------------------------I--------12b13==r12-I
Bb-8/11--11h12p11-13b14r13I-12p11-------------I
Gb------------------------I-------------------I
Db------------------------I-------------------I
Ab------------------------I-------------------I
Eb------------------------I-------------------I

Eb-11h13p11---------------I-------------------I--------I
Bb----------12------------I-------------------I--------I
Gb-------------11h13p11---I-------------------I--------I
Db----------------------12I-------------------I--------I
Ab------------------------I-11h13p11----------I--------I
Eb------------------------I-------------12~~~~I~~~~~~~~I

Outro Riff:

   A5      C5       G5      B5
Eb----------------I----------------I
Bb----------------I----------------I
Gb---------5-5-5-5I---------4-4-4-4I
Db-7-7-7-7-5-5-5-5I-5-5-5-5-4-4-4-4I
Ab-7-7-7-7-3-3-3-3I-5-5-5-5-2-2-2-2I
Eb-5-5-5-5--------I-3-3-3-3--------I

   A5      C5       D5      E5
Eb----------------I----------------I
Bb----------------I----------------I
Gb---------5-5-5-5I-7-7-7-7-9-9-9-9I
Db-7-7-7-7-5-5-5-5I-7-7-7-7-9-9-9-9I
Ab-7-7-7-7-3-3-3-3I-5-5-5-5-7-7-7-7I
Eb-5-5-5-5--------I----------------I

   A5      C5       D5      B5
Eb----------------I----------------I
Bb----------------I----------------I
Gb---------5-5-5-5I----------------I
Db-7-7-7-7-5-5-5-5I-5-5-5-5-4-4-4-4I
Ab-7-7-7-7-3-3-3-3I-5-5-5-5-4-4-4-4I
Eb-5-5-5-5--------I-3-3-3-3-2-2-2-2I

   A5
Eb--------I--------I--------I--------I---------I
Bb--------I--------I--------I--------I---------I
Gb--------I--------I--------I--------I---------I
Db-7-7-7-7I-7-7-7-7I-7-7-7-7I-7-7-7-7I-7~~~~~~~I
Ab-7-7-7-7I-7-7-7-7I-7-7-7-7I-7-7-7-7I-7~~~~~~~I
Eb-5-5-5-5I-5-5-5-5I-5-5-5-5I-5-5-5-5I-5~~~~~~~I
            
Submit corrections

comments powered by Disqus
↑ Back to top | Unsigned Tabs for Conformity - Parasite. Lyrics for acoustic guitar and electric guitar. Tablatures and chords are parodies/interpretations of the original songs. You may use it for private study, scholarship, research or language learning purposes only