» » »

Unsigned, Cobalt Blue-March Of War Tabs (ver.1)

Artists:  A B C D E F G H I J K L M N O P Q R S T U V W X Y Z # 

Cobalt Blue-March Of War Tabs (ver.1)

Unsigned Tabs
 Rating:
4/5 (4 votes)
Cobalt Blue-March Of War lessons Tabs too difficult? Try these video lessons and learn fast
1
                These are the tabs for March Of War by Cobalt Blue

Guitar 1-Lead
Guitar 2-Rythmn

Intro-guitar 1
  pm........................................................
E|----------------------------------------------------------|
B|----------------------------------------------------------|
G|----------------------------------------------------------|
D|----------------------------------------------------------|
A|----------------------------------------------------------|
E|--4-0-0-4-0-0-7-4-0-0-4-0-0-7-5-0-0-5-0-0-8-5-0-0-5-0-0-8-|

  pm..................................................................
E|--------------------------------------------------------------------|
B|--------------------------------------------------------------------|
G|--------------------------------------------------------------------|
D|--------------------------------------------------------------------|
A|--------------------------------------------------------------------|
E|--7-0-0-7-0-0-10-7-0-0-7-0-0-10-9-0-0-12-9-0-0-12-9-0-0-12-9-0-0-12-|

<INTRO X4, ON SECOND TIME ONWARDS NO PARM MUTE!!!>


BOTH GUITAR 1 AND 2

E|-----------------|
B|-----------------|
G|-----------------|X2 LET LAST CHORD RING
D|--4-4-4----------|
A|--4-4-4----------|
E|--2-2-2----------|

VERSE-GUITAR 1---GUITAR 2 CHORDS ARE ABOVE NOTES-----REPEAT X2--TIME SIG.12/8

    G             Cm		G	      E
E|--15-----15-----16-----16-----15-----15-----12-----12-----|
B|----12-----12-----12-----12-----12-----12-----12-----12---|
G|------12-----12-----12-----12-----12-----12-----12-----12-|
D|----------------------------------------------------------|
A|----------------------------------------------------------|
E|----------------------------------------------------------|

PRE-CHORUS--BOTH GUITARS

e|----------------------------------------|
B|----------------------------------------|
G|----------------------------------------|
D|--4-4-4-4-4-4--4-4-4-4-4-4--4-4-4-4-4-4-|
A|--4-4-4-4-4-4--4-4-4-4-4-4--4-4-4-4-4-4-|
E|--2-2-2-2-2-2--2-2-2-2-2-2--2-2-2-2-2-2-|

E|-----------------------------------------13-12-10-------------------------|
B|--------------------------------------------------13-12-10----------------|
G|-----------------------------------------------------------13-12b-12b-12b-|
D|--4-4-4-4-4-4--4-4-4-4-4-4--4-4-4-4-4-4-----------------------------------|
A|--4-4-4-4-4-4--4-4-4-4-4-4--4-4-4-4-4-4-----------------------------------|
E|--2-2-2-2-2-2--2-2-2-2-2-2--2-2-2-2-2-2-----------------------------------|


CHORUS-BOTH GUITARS--ONE IS PALM MUTED

E|------------------------------------------------------------|
B|------------------------------------------------------------|
G|------------------------------------------------------------|
D|------------------------------------------------------------|  X2
A|------------------------------------------------------------|
E|--4-0-0-4-0-0-7-5-0-0-5-0-0-8-7-0-0-7-0-0-10-9-0-0-9-0-0-12-|


THATS ALL YOU NEED TO KNOW..,


CHORDS:
G-320003
Cm-x21200
E-022100
            
Submit corrections

comments powered by Disqus
↑ Back to top | Unsigned Tabs for Cobalt Blue-March Of War. Lyrics for acoustic guitar and electric guitar. 1 Tablatures and chords are parodies/interpretations of the original songs. You may use it for private study, scholarship, research or language learning purposes only