» » »

Close To Nothing - Instrumental Bass tabs (ver.1)

Artists:  A B C D E F G H I J K L M N O P Q R S T U V W X Y Z # 

Close To Nothing - Instrumental Bass tabs (ver.1)

Unsigned
Rating:
0/5 (0 votes)

Hard to play? Try these video lessons and learn fast.
                G|----6----6---6-------6----6---6-------3---3--3---------------------
D|-44--44---4--4--66--66---6--6--11--11--1- 1----4----4---4----  x 4 
A|-----------------------------------------------------22--22---2---2--
E|------------------------------------------------------------------------

G|-------------------------
D|-4------6------1-------
A|-----------------------2
E|-------------------------

G|------------------------------------------------------------
D|-4------6------1-1-1-1-1-1-1-1-------------------------   x2
A|-----------------------------------------2-2-2-2-2-2-2-2
E|-------------------------------------------------------------

		            *Guitar Solo*

G|----6----6---6-------6----6---6-------3---3--3---------------------
D|-44--44---4--4--66--66---6--6--11--11--1- 1----4----4---4----  x 4 
A|-----------------------------------------------------22--22---2---2--
E|------------------------------------------------------------------------

G|-------------------------
D|-------------------------
A|----------------1------2
E|-2------4----------------

G|--------------------------------------------------------
D|--------------------------------------------------------   x2
A|----------------1-1-1-1-1-1-1-1--2-2-2-2-2-2-2-2
E|-2------4-----------------------------------------------

		       *Guitar Solo*

G|----6----6---6-------6----6---6-------3---3--3---------------------
D|-44--44---4--4--66--66---6--6--11--11--1- 1----4----4---4----  x 4 
A|-----------------------------------------------------22--22---2---2--
E|------------------------------------------------------------------------

G|------------------------
D|-1-------------4-------
A|--------2-------------4
E|-------------------------


G|-------------------------------------------------------
D|-1-------------4-4-4-4-4-4-4-4---------------------
A|--------2---------------------------4-4-4-4-4-4-4-4
E|--------------------------------------------------------

		      *Guitar Solo*

G|----6----6---6-------6----6---6-------3---3--3---------------------
D|-44--44---4--4--66--66---6--6--11--11--1- 1----4----4---4----  x 4 
A|-----------------------------------------------------22--22---2---2--
E|------------------------------------------------------------------------

G|-------------------------
D|-------------------------   x2
A|----------------1------2
E|-2------4----------------

G|------------------------------------
D|------------------------------------   x4
A|----------------1-1-1-1--2-2-2-2
E|-2------4---------------------------

D|------4       (let ring)
            
Hard to play? Try these video lessons and learn fast. | Correct




comments powered by Disqus
↑ Back to top | Tablatures and chords are parodies/interpretations of the original songs. You may use it for private study, scholarship, research or language learning purposes only