» » »

Unsigned, Climax - No Point Tabs (ver.1)

Artists:  A B C D E F G H I J K L M N O P Q R S T U V W X Y Z # 

Climax - No Point Tabs (ver.1)

Unsigned Tabs
 Rating:
4/5 (4 votes)
Climax - No Point lessons Tabs too difficult? Try these video lessons and learn fast
                Climax     (no point?)

E|--------------------------------------
B|--------------------------------------
G|--12--12--12---------13--13------      x4
D|--12--12--12---------13--13------
A|--10--10--10---------11--11------
D|-----------------000------------0---


E|----------------------------
B|-----------------------------
G|--5555--****--660------   
D|--5555--****--660------    x4
A|--5555--****--660------
D|----------------------------


E|-----------------------------------------------------------------------------------------
B|-----------------------------------------------------------------------------------------
G|-----------------------------------------------------------------------------------------
D|--------------7/8-----------------8/9----------------5/6-----------------7/-----------x4/8
A|--------5---------------------7------------------3-------------------5-----------------
D|--0-5-----------------0--7----------------0-3-----------------0-5--------------------


E|---------------------------------------------------------------
B|---------------------------------------------------------------
G|---------------------------------------------------------------
D|---3333333-------6666---555---44444445pb-----------    x2
A|---3333333-------6666---555-----------------------------
D|---3333333-------6666---555-----------------------------


E----------------------------------------------
B|---------------------------------------------
G|---------------------------------------------x necessary amount!
D|---3333----77--55------------------------
A|---3333----77--55------------------------
D|---------------------------------------------


E|-------------------------------------------------------------------------------------------------------------------------|
B|-------------------------------------------------------------------------------------------------------------------------|
G|-------------------------------------------------------------------------------------------------------------------------|
D|-------------------------------------------------------------------------------------------------------------------------|
A|-------------------------------------------------------------------------------------------------------------------------|
D|-------------------------------------------------------------------------------------------------------------------------|


E|-------------------------------------------------------------------------------------------------------------------------|
B|-------------------------------------------------------------------------------------------------------------------------|
G|-------------------------------------------------------------------------------------------------------------------------|
D|-------------------------------------------------------------------------------------------------------------------------|
A|-------------------------------------------------------------------------------------------------------------------------|
D|-------------------------------------------------------------------------------------------------------------------------|
            
Submit corrections

comments powered by Disqus
↑ Back to top | Unsigned Tabs for Climax - No Point. Lyrics for acoustic guitar and electric guitar. Tablatures and chords are parodies/interpretations of the original songs. You may use it for private study, scholarship, research or language learning purposes only