» » »

Clarion - Infatuated Tabs (ver.1)

Artists:  A B C D E F G H I J K L M N O P Q R S T U V W X Y Z # 

Clarion - Infatuated Tabs (ver.1)

Unsigned
Rating:
0/5 (0 votes)

Hard to play? Try these video lessons and learn fast.
                Dropped D Tuning

Intro (No Distortion)
e---------------    ----------------   
b---------------    ----------------   
g-------0-------    -------0--------   
d-----2---2----- x3 -----2---2------   
a---2-------2---    ---2-------2----
d-2-----------2-    -2--------------    

Verse 1 (Distorted)
e----------------------------------------------------
b----------------------------------------------------
g----------------------------------------------------
d----------------------------------------------------   x4
a-22-22-22-22--33-33-33-33--55-55-55-55--77-77-77-77\
d-22-22-22-22--22-22-22-22--22-22-22-22--22-22-22-22-
 \_____________________palm mute____________________/

Chorus
e-----------  ---------  ------
b-----------  ---------  ------
g-----------  ---------  ------
d-2-5-12-14-  ---------  -10-9-
a-2-5-12-14-  ---------  -10-9-
d-2-5-12-14-  -2-4-5-9-  -10-9-
               . . . . 

Verse 2
e----------------------------------------------------
b----------------------------------------------------
g----------------------------------------------------
d----------------------------------------------------   x4
a-22-22-22-22--33-33-33-33--55-55-55-55--77-77-77-77\
d-22-22-22-22--22-22-22-22--22-22-22-22--22-22-22-22-
 \_________________heavily distorted________________/

Chorus
e-----------  ---------  ------
b-----------  ---------  ------
g-----------  ---------  ------
d-2-5-12-14-  ---------  -10-9-
a-2-5-12-14-  ---------  -10-9-
d-2-5-12-14-  -2-4-5-9-  -10-9-

Solo (Repeat Once)
e---     ----     ---     ---------------   
b---     ----     ---     ---------------   
g-9- x8  -10- x8  -7- x8  -9-9-9-9-9-7--7
d---     ----     ---     ------------9-- 
a---     ----     ---     ---------------   
d---     ----     ---     ---------------

Chorus
e-----------  ---------  ------
b-----------  ---------  ------
g-----------  ---------  ------
d-2-5-12-14-  ---------  -10-9-
a-2-5-12-14-  ---------  -10-9-
d-2-5-12-14-  -2-4-5-9-  -10-9-

Outro
e---------------------------------------------------   
b---------------------------------------------------   
g-------0-----------0-----------0-----------0-------   
d-----2---2-------2---2-------2---2-------2---2-----   
a---2-------2---2-------2---2-------2---2-------2---
d-2-----------2-----------2-----------2-----------2-
                                     \_play slower_/
            
Hard to play? Try these video lessons and learn fast. | Correct




comments powered by Disqus
↑ Back to top | Tablatures and chords are parodies/interpretations of the original songs. You may use it for private study, scholarship, research or language learning purposes only