» » »

Cherry Machine - Parents Bass tabs (ver.1)

Artists:  A B C D E F G H I J K L M N O P Q R S T U V W X Y Z # 

Cherry Machine - Parents Bass tabs (ver.1)

Unsigned
Rating:
0/5 (0 votes)

Hard to play? Try these video lessons and learn fast.
                intro

-----------------------------
-----------------------------x2
-------------------1-1-0-----
5-5-0-3-3-0-1-1-0------------

verse
--------------------
-------0-3-0-2------
0-0-3-2------------- x3
--------------------


then after the third verse you play  you do the verse and this part 3 times
---------------
---------------
7-5-33---------
---------------
chorous

--------------------------
--------------------------x4
--------------5555555-----
333333-5555555--------0-1-2

do the verse again

Bridge
0-0-2-3-2-3-2-3-0-0-2-3-2--
-------------------------3-3
---------------------------- x4
----------------------------

solo


--------------------
-------0-3-0-2------
0-0-3-2------------- x3
--------------------

---------------
---------------
7-5-33---------
---------------
 end of song.

This is my bands song its called parents

Lyrics:

who are the first ones that interfere with friday nights...THE PARENTS
who always makes you clean your room when your playing guitar....PARENTS
who always make you turn down the music when your rockin out...PARENTS


always messing up everything in my life
Im just trying to have a good time
why do they always get in the way
i wish that whey would just GO A-WAY


who makes u eat all ur vegtables...PARENTS
who makes u go 2 bed at 8 O clock!..PARENTS
who makes you dress up "nice for dinner" ...PARENTS
who are the only ones who care about how you look...PARENTS

always messing up everything in my life
Im just trying to have a good time
why do they always get in the way
i wish that whey would just GO A-WAY
            
Hard to play? Try these video lessons and learn fast. | Correct




comments powered by Disqus
↑ Back to top | Tablatures and chords are parodies/interpretations of the original songs. You may use it for private study, scholarship, research or language learning purposes only