» » »

Unsigned, Chemical 0 - Lookin Bass tabs (ver.1)

Artists:  A B C D E F G H I J K L M N O P Q R S T U V W X Y Z # 

Chemical 0 - Lookin Bass tabs (ver.1)

Unsigned Tabs
Rating:
0/5 (0 votes)
Chemical 0 - Lookin lessons Tabs too difficult? Try these video lessons and learn fast
                VERSE

G|-------------------------------------------------------------------|
D|-------------------------------------------------------------------|
A|-------------------------------------------------------------------|
E|---12----------12--9-----------7---9-----------5---7-----------7/--|
     1   +   2   +   3   +   4   +   1   +   2   +   3   +   4   +

CHORUS

G|------------------------------------------|
D|---0---0---0---0---0---0---0---0-7-8-9----|
A|------------------------------------------|
E|------------------------------------------|
     1 + 2 + 3 + 4 + 1 + 2 + 3 + 4 e + a


G|------------------------------------------|
D|---0---0---0---0---0---0---0---0-8-9-10---|
A|------------------------------------------|
E|------------------------------------------|
     1 + 2 + 3 + 4 + 1 + 2 + 3 + 4 e + a


G|------------------------------------------|
D|---0---0---0---0---0---0---0---0-9-10-11--|
A|------------------------------------------|
E|------------------------------------------|
     1 + 2 + 3 + 4 + 1 + 2 + 3 + 4 e +  a


G|---------------------------14h15p14----15h16p15-----------|
D|---0---0---0---0------------------------------------------|
A|----------------------------------------------------------|
E|----------------------------------------------------------|
     1 + 2 + 3 + 4 + 1 + 2 + 3  e  +     4  e  +
            
Submit corrections

comments powered by Disqus
↑ Back to top | Unsigned Bass for Chemical 0 - Lookin. Lyrics for acoustic guitar and electric guitar. Tablatures and chords are parodies/interpretations of the original songs. You may use it for private study, scholarship, research or language learning purposes only