» » »

Chemical 0 - Insight Bass tabs (ver.1)

Artists:  A B C D E F G H I J K L M N O P Q R S T U V W X Y Z # 

Chemical 0 - Insight Bass tabs (ver.1)

Unsigned
Rating:
0/5 (0 votes)

Tabs too difficult? Try these video lessons and learn fast.
                ///Chemical: 0
 //Insight

Verse
G|----2---2-0-2------|
D|--0---0-------3-2--|
A|-------------------|
E|-------------------|



Chorus

G|----3---3-1-3---------|
D|--1---1-------4-3-----|
A|-------------------3~-|
E|----------------------|


Verse


G|----2---2-0-2------|
D|--0---0-------3-2--|
A|-------------------|
E|-------------------|



ending

G|----3---3-1-3---------|
D|--1---1-------4-3-----|
A|-------------------3~-|
E|----------------------|
            
Tabs too difficult? Try these video lessons and learn fast.




comments powered by Disqus
↑ Back to top | Tablatures and chords are parodies/interpretations of the original songs. You may use it for private study, scholarship, research or language learning purposes only