» » »

Chemical 0 - Dont Go Away Bass tabs (ver.1)

Artists:  A B C D E F G H I J K L M N O P Q R S T U V W X Y Z # 

Chemical 0 - Dont Go Away Bass tabs (ver.1)

Unsigned
Rating:
0/5 (0 votes)

Hard to play? Try these video lessons and learn fast.
                


NORMAL VERSE

G|---------------------------------------------|
D|---------------------------------------------|
A|--0-0-0-0-3-2--0-0-3-2-2-3--0-3-2-3-0-2-0-3--|
E|---------------------------------------------|


CHORUS

G|-----------------|--------------------------|
D|-----------------|--------------------------|
A|-----------------|--------------------0--0--|
E|--0-1-2-1-2-3-2--|-0-0-33-0-0-33-0-0--0--0--|


VERSE 2

G|-------------------------------------------------|
D|------------------0-0-7-6------------------------|
A|----------0-0-7-6---------6-7-7-6----------------|
E|--0-0-7-6-------------------------66--7-6-8-5-6--|
            
Hard to play? Try these video lessons and learn fast. | Correct




comments powered by Disqus
↑ Back to top | Tablatures and chords are parodies/interpretations of the original songs. You may use it for private study, scholarship, research or language learning purposes only