» » »

Unsigned, Chain - Show Me Bass tabs (ver.1)

Artists:  A B C D E F G H I J K L M N O P Q R S T U V W X Y Z # 

Chain - Show Me Bass tabs (ver.1)

Unsigned Tabs
Rating:
0/5 (0 votes)
Hard to play? Try these video lessons and learn fast.
                Regular 6-string



INTRO
------------------------------------------
------------------------------------------
------------------------------------------
------------------------------------------
--------------0----1--0-------------------
----3-2-1-0-----3-2------4-3-1-2-0----5-4-

VERSE
------------------------------------------
------------------------------------------
------------------------------------------
------------------------------------------
-------111---222------111--------0-0------
3-1-4-2---4-0---3-1-2-----4-0-2-1-0-0-43-0

CHORUS
-----------------------------------------
-----------------------------------------
-----------------------------------------
-----------------------------------------
-----------------------------------------
0-1-0-1-0-0-3-2-1-0-0-1-2-0-0-0-4-1-0-0-0

WELL THIS IS THE SENCOND SONG THAT I HAVE 
MADE FOR MY BAND. THIS ONE IS PLAYED A LITTLE
BIT FASTER THAN THE OTHER ONE. EVERY TIME YOU 
PLAY THE CHORUS PLAY IT 1X MORE. YOU WILL PLAY THE CHORUS 4X
TOTAL. WHEN U R DONE WITH THE 4TH CHORUS PLAY THE INTRO AGAIN
2X.

this was originally on my smak thing.
            

comments powered by Disqus
↑ Back to top | Unsigned Bass for Chain - Show Me. Lyrics for acoustic guitar and electric guitar. Tablatures and chords are parodies/interpretations of the original songs. You may use it for private study, scholarship, research or language learning purposes only