>
 >
Centre Of Attention - Dilma Tea

Centre Of Attention - Dilma Tea Guitar Tabs

Unsigned - Centre Of Attention - Dilma Tea chords, tabs, tablatures, lyrics

Guitar lessons | Add/correct | Request | Top 50 tabs Artists:  A B C D E F G H I J K L M N O P Q R S T U V W X Y Z 0-9

Centre Of Attention - Dilma Tea Guitar Tabs – Unsigned

CD, Sheet music, Poster

Do you like Centre Of Attention - Dilma Tea? Share with your friends now
Tabs
Dilma Tea - Centre of Attention


Intro (Guitar 1. only, clean ) x1
 e|------2-2-2-2--|-----3-3-3-3--|------2-2-2-2--|-----0------------|
 B|------3-3-3-3--|-----0-0-0-0--|------3-3-3-3--|-----3------------|
 G|-2-2-----------|--------------|-2-2-----------|------------------|
 D|-0-0-----------|--------------|-0-0-----------|-2-2--------------|
 A|---------------|-2-2----------|---------------|-0-0--------------|
 E|---------------|-3-3----------|---------------|------------------|
    * *             * *            * *             * *
    D               G              D               A

 e|------2-2-2-2--|-----3-3-3-3--|------0-0-0-0--|-------2----------|
 B|------3-3-3-3--|-----0-0-0-0--|------3-3-3-3--|-------3----------|
 G|-4-4-----------|--------------|---------------|-------2----------|
 D|-4-4-----------|--------------|-2-2-----------|-------0----------|
 A|-2-2-----------|-3-3----------|-0-0-----------|------------------|
 E|---------------|-2-2----------|---------------|------------------|
    * *             * *            * *         
    Bm              G              A                     D

Bridge (Guitar 1. distorted) x4
 e|-2-2-2-2--2-2-2-2--|-3-3-3-3--0-0-0-0--|
 B|-3-3-3-3--3-3-3-3--|-0-0-0-0--2-2-2-2--|
 G|-4-4-4-4--4-4-4-4--|-0-0-0-0--2-2-2-2--|
 D|-4-4-4-4--4-4-4-4--|-0-0-0-0--2-2-2-2--|
 A|-2-2-2-2--2-2-2-2--|-2-2-2-2-0-0-0-0--|
 E|-------------------|-3-3-3-3-----------|
    Bm                  G        A

Bridge (Guitar 2. distorted) x4
e|-------------------|--------------------|
B|-------------------|--------------------|
G|-4-4-4-4--4-4-4-4--|--------------------|
D|-4-4-4-4--4-4-4-4--|--5-5-5-5--7-7-7-7--|
A|-2-2-2-2--2-2-2-2--|--5-5-5-5--7-7-7-7--|
E|-------------------|--3-3-3-3--5-5-5-5--|


Verse (Guiatr 1. distorted) x4

e|------------------|--------------|--------------|-----------------|
B|------------------|--------------|--------------|-----------------|
G|------------------|-7-7-7-7-7-7--|--------------|-7-7-7-7-7-7-----|
D|------------------|-7-7-7-7-7-7--|-5-5-5-5-5-5--|-7-7-7-7-7-7-----|
A|------------------|-5-5-5-5-5-5--|-5-5-5-5-5-5--|-5-5-5-5-5-5-----|
E|-<<<pick slide<<<-|--------------|-3-3-3-3-3-3--|-----------------|
                      * *            * *            * *
                      D              G              D

e|-------------||--------------|--------------|-------------|
B|-------------||--------------|--------------|-------------|
G|-------------||-4-4-4-4-4-4--|--------------|-------------|
D|-7-7-7-------||-4-4-4-4-4-4--|-5-5-5-5-5-5--|-7-7-7-7-7-7-|
A|-7-7-7-------||-2-2-2-2-2-2--|-5-5-5-5-5-5--|-7-7-7-7-7-7-|
E|-5-5-5-------||--------------|-3-3-3-3-3-3--|-5-5-5-5-5-5-|
   * *            * *            * *            * *
   A              Bm             G              A

e|-------------------||
B|-------------------||
G|-7->->->--LET RING-||
D|-7->->->-----------||
A|-5->->->-----------||
E|-------------------||


Verse (Guitar 2.) x4

e|--------|--------|--------|--------||--------|--------|---------|
B|--------|--------|--------|--------||--------|--------|---------|
G|-----7--|--------|-----7--|--------||-----4--|--------|---------|
D|---7----|-----5--|---7----|-----7--||---4----|-----5--|-----7---|
A|-5------|---5----|-5------|---7----||-2------|---5----|---7-----|
E|--------|-3------|--------|-5------||--------|-3------|-5-------|

e|----------||
B|----------||
G|-7->->->--||
D|-7->->->--||
A|-5->->->--||
E|----------||

Chorous (Guitar 1. and 2.) x4

e|-------------------|-------------------|
B|-------------------|-------------------|
G|-4-4-4-4--4-4-4-4--|-------------------|
D|-4-4-4-4--4-4-4-4--|-5-5-5-5--7-7-7-7--|
A|-2-2-2-2--2-2-2-2--|-5-5-5-5--7-7-7-7--|
E|-------------------|-3-3-3-3--5-5-5-5--|

INTRO
BRIDGE
VERSE
CHOROUS
VERSE
CHOROUS
CHOROUS





Comments


Popular Unsigned tabs & chords
Aggresion Stress On Bass Tabs
Ingrown - All I Wanna Do Bass Tabs
70x7-Alwayz Tabs
A Depressing Song Tabs
Catalyst - Exposed Tabs
Edwardshor-Draw Your Number Tabs
Golden Pistol - How It Was Tabs
Hard Times Tabs
Ice Nine - High Tabs
Kudrna-Time Tabs


Song lyrics



↑ Back to top | Tablatures and chords are parodies/interpretations of the original songs. You may use it for private study, scholarship, research or language learning purposes only
© 2014 AZChords.com Contact us | Privacy policy | DMCA | Add/correct tabs | Request tabs | Top 50 tabs