» » »

Unsigned, Centerpiece - The Greatest Nightmare Tabs (ver.1)

Artists:  A B C D E F G H I J K L M N O P Q R S T U V W X Y Z # 

Centerpiece - The Greatest Nightmare Tabs (ver.1)

Unsigned Tabs
 Rating:
4/5 (4 votes)
Centerpiece - The Greatest Nightmare lessons Tabs too difficult? Try these video lessons and learn fast
1
                
Guitar 1

intro (slight distortion)
e---------------------------------------------
B---------------------------------------------
G--7-6-9-7-7----------------------------------
D--7-7-7-7-7-2X's-5-4-0-0-0-2X's--------------
A--5-5-5-5-5------5-5-5-5-5-------------------
E-----------------3-3-3-3-3------volume swell-

verse 1 (distortion)
e-----------------------------------------------------------
B-----------------------------------------------------------
G-----------------------------------------------------------
D--7-7-7-7-7------------------------------------------------
A--5-5-5-5-5-----9-9-9-9-9----4-4-4---7-7-7-7-7---5-5-4-4-4-
E----------------7-7-7-7-7----2-2-2---5-5-5-5-5---3-3-2-2-2-
p.m.

verse 1 pt. 2 (distortion)
e--------------------------------------------------------
B--------------------------------------------------------
G--------------------------------------------------------
D--7-7-7-7------------------------------2-2-2-6-6-6-9~XXX
A--5-5-5-5-7-7-7-7-9-9-9-9-5-5-4-4-2x's-2-2-2-6-6-6-9~XXX
E----------5-5-5-5-7-7-7-7-3-3-2-2------0-0-0-4-4-4-7~XXX
p.m.

Verse 2
e---------------------------------------
B---------------------------------------
G---------------------------------------
D--7-7-7-7-7-7-7-7-7--------------------
A--5-5-5-5-5-5-5-5-5-5-5-5-4-4-4--2X's--
E--------------------3-3-3-2-2-2--------
P.M...   ...   ...   ...   ... 

Chorus (distortion)
e-----------------------------------------------------------
B-----------------------------------------------------------
G--7-7-7-7-7-7----------------------------------------------
D--7-7-7-7-7-7-5-5-5-5-5-5-12-12-11-7-7-7-7-7-7-12-12-11-7~-
A--5-5-5-5-5-5-5-5-5-5-5-5--X--X--X-7-7-7-7-7-7--X--X--X-X--
E--------------3-3-3-3-3-3-10-10--9-5-5-5-5-5-5-10-10--9-5~-

Music Interlude (distortion)
e--------------------------------------------
B--------------------------------------------
G--7-7-7-6-6-7-7-7-6-6-9-9-7-6-6X's-7~~~~~~--
D--------------------------------------------
A--------------------------------------------
E--------------------------------------------
slight p.m....................

e------------------------------------------------------------------
B------------------------------------------------------------------
G--7-7-7-6-6-7-7-7-6-6-7-7-6-2X's--9-9-9-7-7-9-9-9-7-7-9-9-7-2X's--
D------------------------------------------------------------------
A------------------------------------------------------------------
E---------------------------------------do twice-------------------




Guitar 2

intro (slight distortion)
e--------------------------------------------
B--------------------------------------------
G--12/14-14\11-11-11-11/12-12\9-7-7-7-do 2x's
D--------------------------------------------
A--------------------------------------------
E--------------------------------------------

verse 1 (distortion)
e------------------------------------------------
B------------------------------------------------
G------------------------------------------------
D----------------------7-7-7-7-------------------
A--7-7-7-7----5-5-5----5-5-5-5---9-9-9-9---4-4-4-
E--5-5-5-5----3-3-3--------------7-7-7-7---2-2-2-
p.m.

verse 1 pt. 2 (distortion)
e-------------------------------------------------------------------------
B-------------------------------------------------------------------------
G-------------------------------------------------------------------------
D--7-7-7-7-7-7-------------------------------------2x's--2-2-2-6-6-6-9~~--
A--5-5-5-5-5-5-7-7-7-7-7-7-9-9-9-9-9-9-5-5-5-4-4-4-------2-2-2-6-6-6-9~~--
E--------------5-5-5-5-5-5-7-7-7-7-7-7-3-3-3-2-2-2-------0-0-0-4-4-4-7~~--
p.m...   ...   ...   ...   ...   ...   ...   ...

Verse 2
e------------------------------------------------------
B------------------------------------------------------
G-------------------2x's-------------------------------
D--do verse 1 pt. 2--------then just do verse 1 pt. 2--
A--completely p.m.------------------normal-------------
E------------------------------------------------------

Chorus (distortion)
e-----------------------------------------------------------------------
B-----------------------------------------------------------------------
G--7-7-7-7-7-7-14-14-12-12----------------------------------------------
D--7-7-7-7-7-7--X--X--X--X-5-5-5-5-5-5-5-5-7-7-7-7-7-7-12-12-11-11-7~~--
A--5-5-5-5-5-5-12-12-10-10-5-5-5-5-5-5-5-5-7-7-7-7-7-7--X--X--X--X-X----
E--------------------------3-3-3-3-3-3-3-3-5-5-5-5-5-5-10-10--9--9-5~~--

Music Interlude (distortion)
e------------------------------------------------------------
B------------------------------------------------------------
G--7-7-7~~~~~---------------------{-7-7-7--7-7-7--7-7-------}
D--7-7-7~~~~~5-5-5~~~~~7-7-7~~~~~-{-7-7-7--7-7-7--7-7---4X's}
A--5-5-5~~~~~5-5-5~~~~~7-7-7~~~~~-{-5-5-5--5-5-5--5-5-------}
E--5-5-5~~~~~3-3-3~~~~~5-5-5~~~~~-{-5-5-5--5-5-5--5-5-------}

e---------------------------------------------------------------------------------
B---------------------------------------------------------------------------------
G------------------------------------------------------{-7-7-7--7-7-7--7-7-------}
D--{5-5-5--5-5-5--5-5-----}--{7-7-7--7-7-7--7-7-----}--{-7-7-7--7-7-7--7-7---2X's}
A--{5-5-5--5-5-5--5-5-2X's}--{7-7-7--7-7-7--7-7-2X's}--{-5-5-5--5-5-5--5-5-------}
E--{3-3-3--3-3-3--3-3-----}--{5-5-5--5-5-5--5-5-----}--{-5-5-5--5-5-5--5-5-------}

                                   
Ending (distortion)
e--------------------------------------------
B--------------------------------------------
G--12/14-14\11-11-11-11/12-12\9-7-7-7~~~~~~~~
D--------------------------------------------
A--------------------------------------------
E--------------------------------------------


             Order:
Guitar 1                    Guitar 2

Intro                       Intro
Chorus                      Chorus
Verse 1                     Verse 1
Verse 1 pt. 2               Verse 1 pt. 2
Chorus                      Chorus
Verse 1 pt. 2               Verse 2       
Verse 2                     Chorus
Chorus                      Music Interlude
Music Interlude             Chorus
Chorus                      Ending
            
Submit corrections

comments powered by Disqus
↑ Back to top | Unsigned Tabs for Centerpiece - The Greatest Nightmare. Lyrics for acoustic guitar and electric guitar. 1 Tablatures and chords are parodies/interpretations of the original songs. You may use it for private study, scholarship, research or language learning purposes only