» » »

Celcius - As I Am Bass tabs (ver.1)

Artists:  A B C D E F G H I J K L M N O P Q R S T U V W X Y Z # 

Celcius - As I Am Bass tabs (ver.1)

Unsigned
Rating:
0/5 (0 votes)

Hard to play? Try these video lessons and learn fast.
                Intro/Verse:
G-------7-7-------5-5-----3-3------5-5-----------------------
D------------------------------------------------------------
A--5-5-------3-3------1-1------3-3---------------------------
E------------------------------------------------------------ (x7)

Chorus:
G----------------------------------------------------------------
D-------------------------------------5-7------------------------
A--5-5-5-6---3-3-3-5---1-1-1-3---00------------------------------
E----------------------------------------------------------------(x6)

Verse
Chorus(x2)

Solo:
G---------------------------------------------------
D-----------------------------5-7-------------------
A--5-5/9---3-3/9---1-1/9---00-----------------------
E---------------------------------------------------(x2)

G-----------------------------------------------------------
D----------------------5-7----------------------------------
A--5-5--3-3--1-1--0-0---------------------------------------
E-----------------------------------------------------------

Chrous
            
Hard to play? Try these video lessons and learn fast. | Correct




comments powered by Disqus
↑ Back to top | Tablatures and chords are parodies/interpretations of the original songs. You may use it for private study, scholarship, research or language learning purposes only