» » »

Unsigned, Cause And Consequences - Skad 4 Life Tabs (ver.1)

Artists:  A B C D E F G H I J K L M N O P Q R S T U V W X Y Z # 

Cause And Consequences - Skad 4 Life Tabs (ver.1)

Unsigned Tabs
Rating:
0/5 (0 votes)
Cause And Consequences - Skad 4 Life lessons Tabs too difficult? Try these video lessons and learn fast
                vocals - jenny armstrong/john janman
guitar - steven chamberlain
bass - dan motterham
drums - dave munday

|---5-------5-------5-------5-------3-------3---------3-------3---
|-----5-------5-------6-------6-------3-------3-----5---5---5---5-
|-5-----5-5-----5-7-----7-7-----7-4-----4-4-----4-5-------5-------
|-----------------------------------------------------------------
|-----------------------------------------------------------------
|-----------------------------------------------------------------

|---5-------5-------5-------5-------3-------3---------3-------3---
|-----5-------5-------6-------6-------3-------3-----5---5---3---3-
|-5-----5-5-----5-7-----7-7-----7-4-----4-4-----4-5-------4-------
|-----------------------------------------------------------------
|-----------------------------------------------------------------
|-----------------------------------------------------------------

|---5-------5-------5-------5-------3-------3---------3-------3---
|-----5-------5-------6-------6-------3-------3-----5---5---5---5-
|-5-----5-5-----5-7-----7-7-----7-4-----4-4-----4-5-------5-------
|-----------------------------------------------------------------
|-----------------------------------------------------------------
|-----------------------------------------------------------------

|---5-------5-------5-------5-------3-------3---------3-------3---
|-----5-------5-------6-------6-------3-------3-----5---5---3---3-
|-5-----5-5-----5-7-----7-7-----7-4-----4-4-----4-5-------4-------
|-----------------------------------------------------------------
|-----------------------------------------------------------------
|-----------------------------------------------------------------

|---5-------5-------5-------5-------3-------3---------3-------3---
|-----5-------5-------6-------6-------3-------3-----5---5---5---5-
|-5-----5-5-----5-7-----7-7-----7-4-----4-4-----4-5-------5-------
|-----------------------------------------------------------------
|-----------------------------------------------------------------
|-----------------------------------------------------------------

|---5-------5-------5-------5-------3-------3---------3-------3---
|-----5-------5-------6-------6-------3-------3-----5---5---3---3-
|-5-----5-5-----5-7-----7-7-----7-4-----4-4-----4-5-------4-------
|-----------------------------------------------------------------
|-----------------------------------------------------------------
|-----------------------------------------------------------------

|-5-5-5-5-5-5-5-5-5-5-5-5-5-5-6-6-3-3-3-3-3-3-3-3-3-3-3-3-3-3-3-3-
|-5-5-5-5-5-5-5-5-6-6-6-6-6-6-6-6-3-3-3-3-3-3-3-3-5-5-5-5-5-5-5-5-
|-5-5-5-5-5-5-5-5-7-7-7-7-7-7-7-7-4-4-4-4-4-4-4-4-5-5-5-5-5-5-5-5-
|-----------------------------------------------------------------
|-----------------------------------------------------------------
|-----------------------------------------------------------------

|-5-5-5-5-5-5-5-5-5-5-5-5-5-5-6-6-3-3-3-3-3-3-3-3-3-3-3-3-3-3-3-3-
|-5-5-5-5-5-5-5-5-6-6-6-6-6-6-6-6-3-3-3-3-3-3-3-3-5-5-5-5-3-3-3-3-
|-5-5-5-5-5-5-5-5-7-7-7-7-7-7-7-7-4-4-4-4-4-4-4-4-5-5-5-5-4-4-4-4-
|-----------------------------------------------------------------
|-----------------------------------------------------------------
|-----------------------------------------------------------------

|-----------------------------------------------------------------
|-----------------------------------------------------------------
|-----------------5-5-5-5-5-5-5-5---------------------------------
|-7-7-7-7-7-7-7-7-5-5-5-5-5-5-5-5-2-2-2-2-2-2-2-2-3-3-3-3-3-3-3-3-
|-7-7-7-7-7-7-7-7-3-3-3-3-3-3-3-3-2-2-2-2-2-2-2-2-3-3-3-3-3-3-3-3-
|-5-5-5-5-5-5-5-5-----------------0-0-0-0-0-0-0-0-1-1-1-1-1-1-1-1-

|-----------------------------------------------------------------
|-----------------------------------------------------------------
|-----------------5-5-5-5-5-5-5-5---------------------------------
|-7-7-7-7-7-7-7-7-5-5-5-5-5-5-5-5-2-2-2-2-2-2-2-2-3-3-3-3-3-3-3-3-
|-7-7-7-7-7-7-7-7-3-3-3-3-3-3-3-3-2-2-2-2-2-2-2-2-3-3-3-3-3-3-3-3-
|-5-5-5-5-5-5-5-5-----------------0-0-0-0-0-0-0-0-1-1-1-1-1-1-1-1-

|-----------------------------------------------------------------
|-----------------------------8-8---------------------------------
|-------------9-9-5-5-5-5-5-5-7-7---------------------------------
|-7-7-7-7-7-7-9-9-5-5-5-5-5-5-5-5-2-2-2-2-2-2-2-2-3-3-3-3-5-5-5-5-
|-7-7-7-7-7-7-7-7-3-3-3-3-3-3-5-5-2-2-2-2-2-2-2-2-3-3-3-3-5-5-5-5-
|-5-5-5-5-5-5---------------------0-0-0-0-0-0-0-0-1-1-1-1-3-3-3-3-

|-----------------------------------------------------------------
|-----------------------------------------------------------------
|-------------9-7-5-5-5-5-5-5-7-5---------------------------------
|-7-7-7-7-7-7-9-7-5-5-5-5-5-5-5-3-2-2-2-2-2-2-2-2-3-3-3-3-5-5-5-5-
|-7-7-7-7-7-7-7-5-3-3-3-3-3-3-5---2-2-2-2-2-2-2-2-3-3-3-3-5-5-5-5-
|-5-5-5-5-5-5---------------------0-0-0-0-0-0-0-0-1-1-1-1-3-3-3-3-
            

comments powered by Disqus
↑ Back to top | Unsigned Tabs for Cause And Consequences - Skad 4 Life. Lyrics for acoustic guitar and electric guitar. Tablatures and chords are parodies/interpretations of the original songs. You may use it for private study, scholarship, research or language learning purposes only